» » »

Mario, Super Mario Tabs (ver.1)

Artists:  A B C D E F G H I J K L M N O P Q R S T U V W X Y Z # 

Super Mario Tabs (ver.1)

Mario Tabs
 Rating:
3.1/5 (46 votes)
Super Mario lessons Tabs too difficult? Try these video lessons and learn fast
                Tuning: Standard

e|------------3---------------------------5-----------------|
B|--5-5-5---5-------------------------5-8---6-8-5-----------|
G|--------5---------5-----------------------------7-6-5-----|
D|---------------5----5----7-9-8-7--5-----------------------|
A|----------------------7-----------------------------------|
E|----------------------------------------------------------|

e|-----------------------------------8-8-8--------------------|
B|--8-7-6---5--------------8-7-6---5--------------------------|
G|--------8-------5---5/7--------8----------------------------|
D|------------6/7---7-----------------------------------------|
A|------------------------------------------------------------|
E|------------------------------------------------------------|

e|------------------------------------------------------------|
B|--8-7-6---5-------------------------------------------------|
G|--------8-------5---5/7---7/8-7-5---------------------------|
D|------------6/7---7-----------------------------------------|
A|------------------------------------------------------------|
E|------------------------------------------------------------|

e|------------------------------------------------------------|
B|-------------5------------------5---------------------------|
G|---5-5-5-5-7---5------5-5-5-5-7-----------------------------|
D|-----------------7-5--------------5-------------------------|
A|------------------------------------------------------------|
E|------------------------------------------------------------|

e|-------------------------------3-----------------------------|
B|------------5--------5-5-5---5-------------------------------|
G|--5-5-5-5-7---5------------5---------------------------------|
D|----------------7-5------------------------------------------|
A|-------------------------------------------------------------|
E|-------------------------------------------------------------|

e|-------------------------------------------------------------|
B|--5---------6-6-------10-10-10-8-----------------------------|
G|----5----------------------------10-9------------------------|
D|------5-6-7-----7---9-----------------10-7-5-----------------|
A|-------------------------------------------------------------|
E|-------------------------------------------------------------|

e|-------------------------------------------------------------|
B|--5---------6-6----------------------------------------------|
G|----5-----------------10-10-10-9-7-5-------------------------|
D|------5-6-7-----7---9----------------------------------------|
A|-------------------------------------------------------------|
E|-------------------------------------------------------------|

that's all i know for now...

but these are the other sounds that you can hear while you play...


this is the sound when mario jumps...
e|--2/9--|
B|-------|
G|-------|
D|-------|
A|-------|
E|-------|

i forgot where you can hear this sound....
if you know this sound, then you knew it...

e|----------------------------------|
B|----------------------------------|
G|----------------------------------|
D|----5-5----6-6----7-7----8-8~-----|
A|----------------------------------|
E|--5------6------7------8----------|


this is the sound when youre in the clouds full of coins....
(after you climb the beanstalk)

if it says x, that only means both of the tabs are x...

e|----------------------------------|-------------------------------------|
B|--13---------13---------13--------|--12----------12---------12----------|
G|--10-(x3)----10-(x2)----10-(x1)---|--9--(x3)-----9--(x2)----9--(x1)-----|
D|----------12---------12---------12|-----------10---------10---------10--|
A|----------------------------------|-------------------------------------|
E|----------------------------------|-------------------------------------|

well, thats all i know so far.....
practice hard.....
^_^

P.S
plss add me in friendster...
thnks....
            
Submit corrections

comments powered by Disqus
↑ Back to top | Mario Tabs for Super Mario. Lyrics for acoustic guitar and electric guitar. Tablatures and chords are parodies/interpretations of the original songs. You may use it for private study, scholarship, research or language learning purposes only