>
 >
The Nobodies 5

The Nobodies 5 Guitar Tabs

Marilyn Manson - The Nobodies 5 chords, tabs, tablatures, lyrics

Guitar lessons | Add/correct | Request | Top 50 tabs Artists:  A B C D E F G H I J K L M N O P Q R S T U V W X Y Z 0-9

The Nobodies 5 Guitar Tabs – Marilyn Manson

CD, Sheet music, Poster

Do you like The Nobodies 5? Share with your friends now
Bass TabsBass Tabs v2Bass Tabs v3Bass Tabs v4ChordsChords v2Chords v3Chords v4Drum TabsDrum Tabs v2Drum Tabs v3TabsTabs v2Tabs v3Tabs v4Tabs v5Tabs v6Tabs v7
Marilyn Manson: The Nobodies (acoustic)

Play at about 74 beats per minute
Tuning: Standard (EADGBe)

<1> Intro/ verse
|---------------|----------------|-----------------|------------------|
|---1---1-----1-|--1---1---1---1-|---1-------1-----|---1---1---1---1--|
|-----2-----2---|----2-------2---|-----2-------2---|-----2-------2----|
|---------------|----------------|-------2-2-----2-|-0----------------|
|-0-------0-----|3-------3-------|-----------------|---------3--------|
|---------------|----------------|-0---------------|------------------|

<2> Chorus
|----------------------|
|----------------------|
|-----5----------------|
|-7---5--2---7---5-----|
|-7---3--2---7---5-----|
|-5------0---5---3-----|
  x8  x8 x8  x4  x4

<3> some children died the other day...
|--------------------------------|
|--------------------------------|
|--------------------------------|
|--7--3---7--3---7--3---7--3---2-|
|--7--3---7--3---7--3---7--3---2-|
|--5--1---5--1---5--1---5--1---0-|
   x8 x8  x8 x8  x8 x8  x8 x8

<4> Little riff after final "you shoulda seen the ratings that day..."
|-----------------|
|-----------------|
|-----------------|
|-----------------|
|----5/7--5----3--|-> into verse
|-----------------|

<5> Enter chorus...
|------------|
|------------|
|------------|
|-2--7--5----|
|-2--7--5----|
|-0--5--3----|
  x8 x4 x4

<6> Outro
|--------------------------------------|
|--------------------------------------|
|--2--2------2--2------2--2-----2--2---|
|--2--2------2--2------2--2-----2--2---|
|--0--0------0--0------0--0-----0--0---|
|--------------------------------------|

Play:

<1> [x3] (x1 for intro and x2 for verse "today I'm dirty...")
<2> [x2] (We are the Nobodies! Wanna be somebodies...)
<1> [x2] (yesterday I was dirty...)
<2> [x2] (We are the Nobodies...)
<3> [x1] (Some children died...)
<4> [x1]
<1> [x3] (on 2nd, "nah nanah nah nah" and on 3rd, "we are the nobodies") 
<1> [first 2 bars] (" We are the nobodies, wanna be somebodies...")
<5> [x1] ("...WE'RE DEAD, THEY'LL KNOW JUST WHO WE ARE!")
<2> [x2] ("We are the Nobodies" etc)
<6> [x1]

Lyrics:

today i am dirty, i want to be pretty
tomorrow, i know i'm just dirt
today i am dirty, i want to be pretty
tomorrow, i know i'm just dirt

we are the nobodies, we wanna be somebodies 
when we're dead they'll know just who we are
we are the nobodies, we wanna be somebodies 
when we're dead they'll know just who we are

yesterday i was dirty, wanted to be pretty, 
i know now that i'm forever dirt
yesterday i was dirty, wanted to be pretty, 
i know now that i'm forever dirt

we are the nobodies, we wanna be somebodies 
when we're dead they'll know just who we are
we are the nobodies, we wanna be somebodies 
when we're dead they'll know just who we are

some children died the other day, we fed machines and then we prayed
puked up and down in morbid faith, you should have seen the ratings that day
some children died the other day, we fed machines and then we prayed
puked up and down in morbid faith, you should have seen the ratings that day

we are the nobodies, we wanna be somebodies 
when we're dead they'll know just who we are
we are the nobodies, we wanna be somebodies 
when we're dead they'll know just who we are
we are the nobodies, we wanna be somebodies 
when we're dead they'll know just who we are
we are the nobodies, we wanna be somebodies 
when we're dead they'll know just who we are





Comments


Popular Marilyn Manson tabs & chords
Fundamentally Loathsome 2 Bass Tabs
Snake Eyes And Sissies Bass Tabs
Suicide Snowman 1 Bass Tabs
Long Hard Road Out Of Hell Chords
The Dope Show Chords
Born Again Tabs
Sweet Tooth 3 Tabs
The Fight Song 5 Tabs
The Golden Age Of Grotesque Tabs
Tainted Love Ukulele


Song lyrics



↑ Back to top | Tablatures and chords are parodies/interpretations of the original songs. You may use it for private study, scholarship, research or language learning purposes only
© 2014 AZChords.com Contact us | Privacy policy | DMCA | Add/correct tabs | Request tabs | Top 50 tabs