» » »

The Beautiful People The Real Way Tabs (ver.1)

Artists:  A B C D E F G H I J K L M N O P Q R S T U V W X Y Z # 

The Beautiful People The Real Way Tabs (ver.1)

Marilyn Manson
Rating:
0/5 (0 votes)

Tabs too difficult? Try these video lessons and learn fast.
                intro prt1
E|
B|
G|
D|-xxxxx--xxxxx--xxxxx--xxxxx-|
A|-xxxxx--xxxxx--xxxxx--xxxxx-|
D|-xxxxx--xxxxx--xxxxx--xxxxx-|

intro prt2
E|
B|
G|
D|-0-h3-0-----0-h3-0-----0-h3-0-----0-h3-0-|
A|-0-h3-0-----0-h3-0-----0-h3-0-----0-h3-0-|
D|-0-h3-0-----0-h3-0-----0-h3-0-----0-h3-0-|

intro prt3/chorus
E|
B|
G|
D|-0-h6-0-h6-0---0-h6-0-h6-0---0-h3-0-|
A|-0-h6-0-h6-0---0-h6-0-h6-0---0-h3-0-|
D|-0-h6-0-h6-0---0-h6-0-h6-0---0-h3-0-|

verse(the beautiful people, the beautiful people it's all.......)
E|
B|
G|
D|-xxxxx-x--xxxxx-x--x-xx-|
A|-xxxxx-x--xxxxx-x--x-xx-|
D|-xxxxx-x--xxxxx-x--x-xx-|

post verse
E|
B|
G|
D|-xxx-h3-0----xxx-h3-0-|
A|-xxx-h3-0----xxx-h3-0-|
D|-xxx-h3-0----xxx-h3-0-|

pre-outro
E|
B|
G|
D|-0-h6-0-h6-0----0-h6-0-h6-0---0-h3-0----0-h6-0-h6-0----0-h6-0-h6-0--h6530-|
A|-0-h6-0-h6-0----0-h6-0-h6-0---0-h3-0----0-h6-0-h6-0----0-h6-0-h6-0--h6530-|
D|-0-h6-0-h6-0----0-h6-0-h6-0---0-h3-0----0-h6-0-h6-0----0-h6-0-h6-0--h6530-|

outro
E|
B|
G|
D|-0-h6-0-h6-0----0-h6-0-h6-0--h653-0-|
A|-0-h6-0-h6-0----0-h6-0-h6-0--h653-0-|
D|-0-h6-0-h6-0----0-h6-0-h6-0--h653-0-|

that's it
i couldn't be bothered writing out the order but if u really really need it
parts.
            
Tabs too difficult? Try these video lessons and learn fast.


comments powered by Disqus
↑ Back to top | Tablatures and chords are parodies/interpretations of the original songs. You may use it for private study, scholarship, research or language learning purposes only