» » »

Marilyn Manson, My Monkey Tabs (ver.1)

Artists:  A B C D E F G H I J K L M N O P Q R S T U V W X Y Z # 

My Monkey Tabs (ver.1)

Marilyn Manson Tabs
 Rating:
4/5 (4 votes)
My Monkey lessons Tabs too difficult? Try these video lessons and learn fast
                -------------------------------------------------------------------------------
                             MY MONKEY-Marilyn Manson
-------------------------------------------------------------------------------

Tuning: e B G D A E

main riff:
Saxophone arr. for guitar:
e|--------------------------------|---------------------------------|
B|--------------------------------|---------------------------------|
G|------6---7-7-7-8---6-------6-6-|---------6-7-7-7-8---6-----------|
D|-5--7---7---------7---7---5-----|-7-----5-----------7---7-7---5-5-|
A|------------------------7-------|----7----------------------7-----|
E|--------------------------------|---------------------------------|
guitar:
e|----|--------------------------------|---------------------------------|
B|----|--------------------------------|---------------------------------|
G|-5~-|--------------------------------|---------------------------------|
D|-5~-|------------6/11/5-55-5-5-5/----|------------6/11/5-55-5-5-5/-----|
A|----|--------------------------------|---------------------------------|
E|----|-5-3-2-2-2----------------------|-5-3-2-2-2-----------------------|

Saxophone arr. for guitar:
e|--------------------------------|---------------------------------|
B|--------------------------------|---------------------------------|
G|------6---7-7-7-8---6-------6-6-|---------6-7-7-7-8---6-----------|
D|-5--7---7---------7---7---5-----|-7-----5-----------7---7-7---5-5-|
A|------------------------7-------|----7----------------------7-----|
E|--------------------------------|---------------------------------|
guitar:
e|--------------------------------|------------------------------------------|
B|--------------------------------|------------------------------------------|
G|--------------------------------|------------------------------------------|
D|----7~-------9-7---5-5----------|-(something similar to the previous)------|
A|-----------------7--------------|------------------------------------------|
E|--------------------------------|------------------------------------------|
guitar 2 (with wah):
e|--------------------------------|------------------------------------------|
B|-2-2-2-2-2-2-2-2-2--------------|---2-2-2-2-2-2-2-2------------------------|
G|-2-2-2-2-2-2-2-2-2--------------|-0-2-2-2-2-2-2-2-2------------------------|
D|-2-2-2-2-2-2-2-2-2...-----------|-0-2-2-2-2-2-2-2-2...---------------------|
A|--------------------------------|------------------------------------------|
E|--------------------------------|------------------------------------------|


verse:
e|---------------------------------3~---3~----------------------------------|
B|-----------------------------------2~-2~----------------------------------|
G|--------------------------------------2~----------------------------------|
D|-7~-----------------------------------------------------------------------|
A|--------------------------------------------------------------------------|
E|--------------------------------------------------------------------------|

e|-8~---------------8~------------------------------------------------------|
B|-8~-----------------------------------------------------------------------|
G|-6~-------------6~--------------------------------------------------------|
D|-7~------------------7~---------------------------------------------------|
A|--------------------------------------------------------------------------|
E|--------------------------------------------------------------------------|

pre-chorus x8
e|-----------------|
B|-----------------|
G|-----------------|
D|-----------------|
A|-----------------|
E|-0-2-2-0-2-2-2-2-|

verse again

bridge part 1 x4:
e|---------------------------|
B|---------------------------|
G|---------------------------|
D|---------------------------|
A|-7-7---5/7-7-5-7-7---5/7-7-|
E|-5-5-0-3/5-5-3-5-5-0-3/5-7-|
|guitar 2
e|---------------------------------|
B|---------------------------------|
G|---------------------------------|
D|-------------12-14-14---------10-|
A|-7-7---5/7-7-10-12-12---10-12----|
E|-5-5-0-3/5-5----------0----------|


bridge part 2 x4:
e|----------------------------|
B|----------------------------|
G|----------------------------|
D|----------------------------|
A|-------------------------3^-|
E|-5-5-0-3h5-5-3-5-5-0-3h5----|

pre-chorus x8

bridge 2:
e|--------------------------------------------------------------------------|
B|--------------------------------------------------------------------------|
G|-------(screech......)--------------------5^---------(more screeching...)-|
D|--------------------------------5-5-5-5-7---------------------------------|
A|--------------------------------------------------------------------------|
E|-----------------------------------------------5-0-3----------------------|
 |bass:
G|--------------------------------------------------------------------------|
D|--------------------------------------------------------------------------|
A|--------------------------------------------------------------------------|
E|-5-0-3-----------------0-5-0-3---------------0-5-0-3----------------------|

e|-------------------------|
B|----------3~-------------|
G|----------2~-------------|
D|-------------------------|
A|-------------------------|
E|-------------------------|
 |
G|-------------------------|
D|-------------------------|
A|-------------------------|
E|-0-5-0-3-------3-3-3-3-5-|

Sorry i don't know the guitar solo over "big dicks"

then:
main riff (guitar solos over it)
unintelligable soloing/improv.
main riff (guitar solos over it)
bridge 3 (mostly sound effects)

that's it.

| /  slide up
| \  slide down
| h  hammer-on
| p  pull-off
| ~  vibrato
| +  harmonic
| x  Mute note
===============================================================================
            
Submit corrections

comments powered by Disqus
↑ Back to top | Marilyn Manson Tabs for My Monkey. Lyrics for acoustic guitar and electric guitar. Tablatures and chords are parodies/interpretations of the original songs. You may use it for private study, scholarship, research or language learning purposes only