» » »

Marilyn Manson, Le Fight Song Tabs (ver.1)

Artists:  A B C D E F G H I J K L M N O P Q R S T U V W X Y Z # 

Le Fight Song Tabs (ver.1)

Marilyn Manson Tabs
 Rating:
4/5 (4 votes)
Le Fight Song lessons Tabs too difficult? Try these video lessons and learn fast
1
                The Complete Fight  Song
By Marilyn Manson
John5 shreds away on guitar and bass that he composed himself
One of the heaviest songs on Holywood. One of best as well.
Dropped D

Intro
|-----12----------------------11-11------------------------11-11-------|
|--13----11-11----13--11--11-11--11-11---13--11----11-11----13|
|--13----11-11----13--11-9--9-----11-11---13--11---9--9-------13|
|11-----9--9—-11----9-----------9---9—11---9---------------11----|
|---------------------------------------------------------------------------|
|---------------------------------------------------------------------------|

Riff 1(Chorus)
|4-4-2-2-4-7-7-7—4-4-2-2-4-7-7-7---4-4-2-2-4-7-7-7---4-4-2-2-4-2-2-2|
|4-4-2-2-4-7-7-7—4-4-2-2-4-7-7-7---4-4-2-2-4-7-7-7---4-4-2-2-4-2-2-2|
|4-4-2-2-4-7-7-7---4-4-2-2-4-7-7-7---4-4-2-2-4-7-7-7---4-4-2-2-4-2-2-2|

Riff 2
|-----12-------------------11--11-----|
|--13----11--11----13---11--11---11|
|--13----11--11----13--9---9------11|
|11----9---9-----11---------------9---|
|----------------------------------------|
|----------------------------------------|


Riff 3
|9-9-9-9-9-9-9-9-7-7-7-7-7-7-7-7-9-9-9-9-9-9-9-9-7-7-7-7-7-7-7-7|
|9-9-9-9-9-9-9-9-7-7-7-7-7-7-7-7-9-9-9-9-9-9-9-9-7-7-7-7-7-7-7-7|
|9-9-9-9-9-9-9-9-7-7-7-7-7-7-7-7-9-9-9-9-9-9-9-9-7-7-7-7-7-7-7-7|then into:

|12-12-12-12-12-12-12-12-9-9-9-9-9-9-9-9-7-7-7-7-7-7-7-7-2-2-2-2-2-2-2-2|
|12-12-12-12-12-12-12-12-9-9-9-9-9-9-9-9-7-7-7-7-7-7-7-7-2-2-2-2-2-2-2-2|
|12-12-12-12-12-12-12-12-9-9-9-9-9-9-9-9-7-7-7-7-7-7-7-7-2-2-2-2-2-2-2-2|

Bridge
|3-3-3-3-3-3-3-3-5-5-5-5-5-5-5-5|
|3-3-3-3-3-3-3-3-5-5-5-5-5-5-5-5|
|3-3-3-3-3-3-3-3-5-5-5-5-5-5-5-5|

Song Blueprints
Intro
Riff 1*2
Riff 2*4
Riff 1*2
Riff 3*1
Riff 1*1
Riff 3*1
Riff 1*2
Bridge*4
Riff 1*5(for rhythm only; lead unknown)
Misanthropic Nihilism realizes that humans are a disease, and should or will be eradicated by a force of nature or by themselves.
            
Submit corrections

comments powered by Disqus
↑ Back to top | Marilyn Manson Tabs for Le Fight Song. Lyrics for acoustic guitar and electric guitar. 1 Tablatures and chords are parodies/interpretations of the original songs. You may use it for private study, scholarship, research or language learning purposes only