» » »

Marilyn Manson, Born Again Tabs (ver.1)

Artists:  A B C D E F G H I J K L M N O P Q R S T U V W X Y Z # 

Born Again Tabs (ver.1)

Marilyn Manson Tabs
 Rating:
4/5 (4 votes)
Born Again lessons Tabs too difficult? Try these video lessons and learn fast
                Standard Tuning

   I guess the Intro is played with a keyboard, but I tabbed it for the guitar.

    Intro/Riff 1
E  :--------------------|
B  :--------------------|
G  :--------------------|
D  :-2----5/6\5---2-----|
A  :-2----5/6\5---2-----|
E  :-0----3/4\3---0-----|
    
    Prechorus/Riff 2
E  :-----------------------------------------------------------------------------------------|
B  :-----------------------------------------------------------------------------------------|
G  :-9-9-9-9-9-9-9-9-12-12-12-12-12-12-12-12-14-14-14-14-14-14-14-14-12-12-12-12-12-12-12-12-|
D  :-9-9-9-9-9-9-9-9-12-12-12-12-12-12-12-12-14-14-14-14-14-14-14-14-12-12-12-12-12-12-12-12-|
A  :-7-7-7-7-7-7-7-7-10-10-10-10-10-10-10-10-12-12-12-12-12-12-12-12-10-10-10-10-10-10-10-10-|
E  :-----------------------------------------------------------------------------------------|

E  :-----------------------------------------------------------------------------------------|
B  :-----------------------------------------------------------------------------------------|
G  :-9-9-9-9-9-9-9-9-12-12-12-12-12-12-12-12-14-14-14-14-14-14-14-14-14-14-14-14-14-14-14-14-|
D  :-9-9-9-9-9-9-9-9-12-12-12-12-12-12-12-12-14-14-14-14-14-14-14-14-14-14-14-14-14-14-14-14-|
A  :-7-7-7-7-7-7-7-7-10-10-10-10-10-10-10-10-12-12-12-12-12-12-12-12-12-12-12-12-12-12-12-12-|
E  :-----------------------------------------------------------------------------------------|

E  :-------------------------------------------------|
B  :-------------------------------------------------|
G  :-12-12-12-12-12-12-12-12-11-11-11-11-11-11-11-11-|
D  :-12-12-12-12-12-12-12-12-11-11-11-11-11-11-11-11-|
A  :-10-10-10-10-10-10-10-10--9--9--9--9--9--9--9--9-|
E  :-------------------------------------------------|

    Chorus/Riff 3
E  :-----------------------------------------------------------------|
B  :-----------------------------------------------------------------|
G  :-9-9-9-9-9-9-9-9-9-9-9-9-9-9-9-9-5-5-5-5-5-5-5-5-4-4-4-4-4-4-4-4-|
D  :-9-9-9-9-9-9-9-9-9-9-9-9-9-9-9-9-5-5-5-5-5-5-5-5-4-4-4-4-4-4-4-4-|
A  :-7-7-7-7-7-7-7-7-7-7-7-7-7-7-7-7-3-3-3-3-3-3-3-3-2-2-2-2-2-2-2-2-|
E  :-----------------------------------------------------------------|

E  :-----------------------------------------------------------------|
B  :-----------------------------------------------------------------|
G  :-9-9-9-9-9-9-9-9-9-9-9-9-9-9-9-9-5-5-5-5-5-5-5-5-4-4-4-4-2-2-----|
D  :-9-9-9-9-9-9-9-9-9-9-9-9-9-9-9-9-5-5-5-5-5-5-5-5-4-4-4-4-2-2-5-5-|
A  :-7-7-7-7-7-7-7-7-7-7-7-7-7-7-7-7-3-3-3-3-3-3-3-3-2-2-2-2-0-0-5-5-|
E  :-------------------------------------------------------------3-3-|
     
    Riff 4
E  :------------|
B  :------------|
G  :------------|
D  :-2----5/6\5-|
A  :-2----5/6\5-|
E  :-0----3/4\3-|
    
    Interlude/Riff 5
E  :------------------------------------------------------------------------------|
B  :-------------------------------12----------------------------------------12---|
G  :-9------9--7------7--5------5--12------12--9------9--7------7--5------5--12---|
D  :-x------x--x------x--x------x---x-------x--x------x--x------x--x------x---x---|
A  :-7------7--5------5--3------3--10------10--7------7--5------5--3------3--10---|
E  :------------------------------------------------------------------------------|

E  :----------------------------------------|
B  :-----------------------------------12---|
G  :-12--9------9--7------7--5------5--12---|
D  :--x--x------x--x------x--x------x---x---|
A  :-10--7------7--5------5--3------3--10---|
E  :----------------------------------------|


Song Structure:

Intro/Riff 1 (10 times)

Prechorus/Riff 2

Chorus/Riff 3

Riff 1 (4 times)
Riff 4

Prechorus/Riff 2

Chorus/Riff 3 (2 times)

Interlude/Riff 5 

Chorus/Riff 3 (3 times)
            
Submit corrections

comments powered by Disqus
↑ Back to top | Marilyn Manson Tabs for Born Again. Lyrics for acoustic guitar and electric guitar. Tablatures and chords are parodies/interpretations of the original songs. You may use it for private study, scholarship, research or language learning purposes only