» » »

Marilyn Manson, Born Again Bass tabs (ver.1)

Artists:  A B C D E F G H I J K L M N O P Q R S T U V W X Y Z # 

Born Again Bass tabs (ver.1)

Marilyn Manson Tabs
 Rating:
4/5 (4 votes)
Born Again lessons Tabs too difficult? Try these video lessons and learn fast
                (enters @ 0:38)

Riff 1:
G:-----------------|-----------------|-----------------|-----------------|-----------------|
D:-----------------|-5-5-5-5-5-5-5-5-|-7-7-7-7-7-7-7-7-|-----------------|-----------------|
A:-7-7-7-7-7-7-7-7-|-----------------|-----------------|-6-6-6-6-6-6-6-6-|-7-7-7-7-7-7-7-7-|
E:-----------------|-----------------|-----------------|-----------------|-----------------|

G:-----------------|-----------------|-----------------|
D:-5-5-5-5-5-5-5-5-|-7-7-7-7-7-7-7-7-|-7-7-7-7-7-7-7-7-|
A:-----------------|-----------------|-----------------|
E:-----------------|-----------------|-----------------|

Pause for 2 measures

Riff 2:
G:-----------------|-----------------|-----------------|-----------------|-----------------|
D:-----------------|-----------------|-----------------|-----------------|-----------------|
A:-7-7-7-7-7-7-7-7-|-7-7-7-7-7-7-7-7-|-5-5-5-5-5-5-5-5-|-----------------|-7-7-7-7-7-7-7-7-|
E:-----------------|-----------------|-----------------|-7-7-7-7-7-7-7-7-|-----------------|

G:-----------------|-----------------|---------------|
D:-----------------|-----------------|---------------|
A:-7-7-7-7-7-7-7-7-|-5-5-5-5-5-5-5-5-|---------------|
E:-----------------|-----------------|-7-7-7-7--8--7-|

Pause for 9 measures

Riff 3:
G:-----------------|-----------------|-----------------|-----------------|-----------------|
D:-----------------|-5-5-5-5-5-5-5-5-|-7-7-7-7-7-7-7-7-|-----------------|-----------------|
A:-7-7-7-7-7-7-7-7-|-----------------|-----------------|-6-6-6-6-6-6-6-6-|-7-7-7-7-7-7-7-7-|
E:-----------------|-----------------|-----------------|-----------------|-----------------|

G:-----------------|-----------------|-----------------|-----------------|-----------------|
D:-5-5-5-5-5-5-5-5-|-7-7-7-7-7-7-7-7-|-7-7-7-7-7-7-7-7-|-----------------|-----------------|
A:-----------------|-----------------|-----------------|-----------------|-----------------|
E:-----------------|-----------------|-----------------|-8-8-8-8-8-8-8-8-|-7-7-7-7-7-7-7-7-|

Riff 2 (x2)
Pause for 12 measures
Riff 2 (x3)
            
Submit corrections

comments powered by Disqus
↑ Back to top | Marilyn Manson Bass for Born Again. Lyrics for acoustic guitar and electric guitar. Tablatures and chords are parodies/interpretations of the original songs. You may use it for private study, scholarship, research or language learning purposes only