» » »

Better Of Two Evils Tabs (ver.2)

Artists:  A B C D E F G H I J K L M N O P Q R S T U V W X Y Z # 

Better Of Two Evils Tabs (ver.2)

Marilyn Manson
Rating:
0/5 (0 votes)

Hard to play? Try these video lessons and learn fast.
                Marilyn Manson
‘Better Of Two Evils’
‘The Golden Age Of Grotesque’

This is probably my favourite song from an amazing album. It’s really easy to play so enjoy.

Drop D tuning

Main Riff
D---2h4-4---2h4-4---2h4-4---2h4-5---2h4-4---2h4-4---2h4-5---2-2-2-
A---2h4-4---2h4-4---2h4-4---2h4-5---2h4-4---2h4-4---2h4-5---2-2-2-
D---2h4-4---2h4-4---2h4-4---2h4-5---2h4-4---2h4-4---2h4-5---2-2-2-

Bridge
D---5-4---4h5-4---5-4---4h5-4---5-4---4h5-4---5-4---4h5-4-
A---5-4---4h5-4---5-4---4h5-4---5-4---4h5-4---5-4---4h5-4-
D---5-4---4h5-4---5-4---4h5-4---5-4---4h5-4---5-4---4h5-4-

Interlude
G---5-5---5-5---5-5---5-5---5-5-5-
D-5-5-5-5-5-5-5-5-5-5-5-5-5-5-5-5-
A-5-3-3-5-3-3-5-3-3-5-3-3-5-3-3-3-
D-5-----5-----5-----5-----5-------

Interlude2
D---5-4---4h5-4---5-4---4h5-4---5-4---4h5-4---5-4---5-4-
A---5-4---4h5-4---5-4---4h5-4---5-4---4h5-4---5-4---5-4-
D---5-4---4h5-4---5-4---4h5-4---5-4---4h5-4---5-4---5-4-
 Pm----------------------------------------------------|

Song Order
Intro – no guitar
Main Riff
Verse – no guitar
Bridge
Main Riff x2
Bridge
Verse – no guitar
Bridge
Main Riff x2
Bridge
Interlude
Interlude2
Break for drum beat
Main Riff
Bridge

That’s it. I’ll get more GAOG stuff tabbed so look out for it.

nongoth
            
Hard to play? Try these video lessons and learn fast. | Correct




comments powered by Disqus
↑ Back to top | Tablatures and chords are parodies/interpretations of the original songs. You may use it for private study, scholarship, research or language learning purposes only