» » »

Beautiful People Tabs

Artists:  A B C D E F G H I J K L M N O P Q R S T U V W X Y Z # 

Beautiful People Tabs

(ver. 1)
Marilyn Manson Tabs
 Rating:
3.2/5 (17 votes)
    Beautiful People lessons Tabs too difficult? Try these video lessons and learn fast
                Tunning: Drop D (DADGBe)-All Distortion

Fig #1
E|--------------------------------|
B|--------------------------------|
G|--------------------------------|
D|x-x-x-x-x-x-x-x-x-x-x-x-x-x-x-x-|   
A|x-x-x-x—x-x-x-x-x-x-x-x-x-x-x-x-|
D|x-x-x-x-x-x-x-x—x-x-x-x—x-x-x-x-|

Fig#2
E|----------------------------------|   
B|----------------------------------|   
G|----------------------------------|   
D|-0-3-0----0-3-0----0-3-0----0-3-0-|   
A|-0-3-0----0-3-0----0-3-0----0-3-0-|   
D|-0-3-0----0-3-0----0-3-0----0-3-0-|   

Fig #3
E|------------------------------------|
B|------------------------------------|
G|------------------------------------|
D|--0-6-0-6-0----0-6-0-6-0-----0-3-0--|
A|--0-6-0-6-0----0-6-0-6-0-----0-3-0--|
D|--0-6-0-6-0----0-6-0-6-0-----0-3-0--|

Fig #4
E|-----------------|
B|-----------------|
G|-----------------|
D|-----------------|
A|--5---4---3---2--|
D|-----------------|

Fig #5
E|----------------------------------------------------|
B|----------------------------------------------------|
G|----------------------------------------------------|
D|--x-x-x-3-0----x-x-x-3-0----x-x-x-3-0----x-x-x-3-0--|
A|--x-x-x-3-0----x-x-x-3-0----x-x-x-3-0----x-x-x-3-0--|
D|--x-x-x-3-0----x-x-x-3-0----x-x-x-3-0----x-x-x-3-0--|

Fig #6
E|----------------------------------|
B|----------------------------------|
G|----------------------------------|
D|--0-6-0-6-0----0-6-0-6-0-6-5-3-0--|
A|--0-6-0-6-0----0-6-0-6-0-6-5-3-0--|
D|--0-6-0-6-0----0-6-0-6-0-6-5-3-0--|

Song Order
Fig #1=x2
Fig #2=x1
Fig #3=x4
Fig #1=x2
Fig #4=x2
Fig #3=x4
Fig #5=x2
Fig #3=x4
Fig #4=x2
Fig #3=x4
Fig #5=x3
Fig #6=x4
            
Submit corrections

↑ Back to top | Marilyn Manson Tabs for Beautiful People. Lyrics for acoustic guitar and electric guitar. Tablatures and chords are parodies/interpretations of the original songs. You may use it for private study, scholarship, research or language learning purposes only