>
 >
Astonishing Panorama Of The Endtimes

Astonishing Panorama Of The Endtimes Guitar Tabs

Marilyn Manson - Astonishing Panorama Of The Endtimes chords, tabs, tablatures, lyrics

Guitar lessons | Add/correct | Request | Top 50 tabs Artists:  A B C D E F G H I J K L M N O P Q R S T U V W X Y Z 0-9

Astonishing Panorama Of The Endtimes Guitar Tabs – Marilyn Manson

CD, Sheet music, Poster

Do you like Astonishing Panorama Of The Endtimes? Share with your friends now
Bass TabsBass Tabs v2TabsTabs v2
Lyrics by: Marilyn Manson



Cool song! But the solo is much better live.
I not 100% sure on the solo.
I haven't seen anyone else tab the solo,
so this is how I play.

.=Palm Muted



Intro/Verse

------------------------
------------------------
------------------------
----------------5-7-8-2-
----------------5-7-8-2-
-00000000000000-3-5-6-0-
 ..............



Chours
"Violens is for the peopel"

----------------------
----------------------
---9--------9---------
-2-9-8-7--2-9-8-7-5-2-
-2-7-8-7--2-7-8-7-5-2-
-0---6-5--0---6-5-3-0-



Verse 2

------------------------
------------------------
------------------------
----------------5-7-8-2-
----------------5-7-8-2-
-00000000000000-3-5-6-0-



Chours

----------------------
----------------------
---9--------9---------
-2-9-8-7--2-9-8-7-5-2-
-2-7-8-7--2-7-8-7-5-2-
-0---6-5--0---6-5-3-0-



Break  (Rhythm Guitar)
"Kill your God"

--------
--------
--------
-2--5-6-
-2--5-6-
-0--3-4-



Verse 3

------------------------------
------------------------------
------------------------------
----------------5-7-8-2-------
----------------5-7-8-2---1h2-
-00000000000000-3-5-6-0-------
 ..............



Chours

----------------------
----------------------
---9--------9---------
-2-9-8-7--2-9-8-7-5-2-
-2-7-8-7--2-7-8-7-5-2-
-0---6-5--0---6-5-3-0-



Break  (Rhythm Guitar)

--------
--------
--------
-2--5-6-
-2--5-6-
-0--3-4-



Break  (Lead Gutiar)
Solo 1
(Listen in the background and you will here it)

-13p12-12-
----------
----------
----------
----------
----------



Solo 2
(The are the funny noises)

----14-13-12-
-12----------
-------------
-------------
-------------
-------------



Bridge
"This is what you should fear"

-----------------------------------
-----------------------------------
-----------------------------------
-----------------------------------
-----------------------------------
-3-2-1-0-3-2-1-0-3-2-1-1-2-3-0-0-0-





Solo 3
(Use ALOT of vibrations!)
T=Tap with the top of you finger.

-------------------------------------/14\-------------/14\-
----------8~----9~----10~----------------------------------
-------7~----7~----7~------7~-6~-5~---------7~-6~-5~-------
-----------------------------------------------------------
-10/-------------------------------------------------------
-----------------------------------------------------------

        T       T       T       T       T       T       T
-------------------------------------------------------9h15p12
-----8h14p11p8h14p11p8h14p11p8h14p11p8h14p11p8h14p11p8--------
--------------------------------------------------------------
--------------------------------------------------------------
-14/----------------------------------------------------------
--------------------------------------------------------------

  T       T       T       T       T        T        T
h15p12p9h15p12p9h15p12p9h15p12p9h15p12p9--15p12p9--15p12p9--15p
--------------------------------------------------------------
--------------------------------------------------------------
--------------------------------------------------------------
--------------------------------------------------------------
--------------------------------------------------------------

  T         T
12p9------------------------------------------------
----------------------------------------------------
-----------------------15~----------------------15~-
-------------14h15h16-----------------14h15h16------
----14h15h16-----------------14h15h16---------------
----------------------------------------------------

The last part of the solo if very hard to hear (You hear it better live)



Bridge  (Bass)

----------------------
----------------------
---7--------7---------
-0---6-5--0---6-5-3-0-



Outro
"Kill your God,Kill your Tv!!!!"

----------------------
----------------------
---9--------9---------
-2-9-8-7--2-9-8-7-5-2-
-2-7-8-7--2-7-8-7-5-2-
-0---6-5--0---6-5-3-0-


If you want to correcte me you can stick a finger in your ass
because I hate peopel that corrects.





Comments


Popular Marilyn Manson tabs & chords
Down In The Park 2 Bass Tabs
Mutilation Is The Most Sincere Form Of Flattery Bass Tabs
Leave A Scar 1 Chords
The Nobodies Drum Tabs
Cyclops 1 Tabs
Heart-shapped Glasses Tabs
Just A Car Crash Away Tabs
Slutgarden Tabs
Sweet Dreams 9 Tabs
White Trash Tabs


Song lyrics



↑ Back to top | Tablatures and chords are parodies/interpretations of the original songs. You may use it for private study, scholarship, research or language learning purposes only
© 2014 AZChords.com Contact us | Privacy policy | DMCA | Add/correct tabs | Request tabs | Top 50 tabs