» » »

Marilyn Manson, Arma-goddamn-motherfucking-geddon Bass tabs (ver.2)

Artists:  A B C D E F G H I J K L M N O P Q R S T U V W X Y Z # 

Arma-goddamn-motherfucking-geddon Bass tabs (ver.2)

Marilyn Manson Tabs
Rating:
5/5 (1 vote)
Arma-goddamn-motherfucking-geddon lessons Tabs too difficult? Try these video lessons and learn fast
                 INTRO
g|-----------------------------------------------|
d|-----------------------------------------------|   
a|-2-2-2-22002-2-2-555555-2-2-2-22002-2-2-555555-|  x1
e|-----------------------------------------------|

 VERSE
g|------------------------------------|
d|------------------------------------|
a|-2-220-20--22020-2-220-20--2/555555-|  x4
e|------------------------------------|

  CHORUS
g|----------------------------------|
d|----------------------------------| 
a|-------------------2-220-20--22020|  
e|-33333333-22222222----------------|

g|----------------------------------|
d|----------------------------------| 
a|-------------------2-220-20--22020|  
e|-33333333-22222222----------------|

g|-------------------------------------------------------|
d|-------------------------------------------------------|
a|-------------------55555555-44444444-------------------|   x1
e|-33333333-22222222-------------------33333333-55555555-|

  BRIDGE (same as intro)
g|-----------------------------------------------|
d|-----------------------------------------------|   
a|-2-2-2-22002-2-2-555555-2-2-2-22002-2-2-555555-|  x1
e|-----------------------------------------------|

    VERSE
g|------------------------------------|
d|------------------------------------|
a|-2-220-20--22020-2-220-20--2/555555-|  x4
e|------------------------------------|

     CHORUS
g|----------------------------------|
d|----------------------------------| 
a|-------------------2-220-20--22020|  
e|-33333333-22222222----------------|

g|----------------------------------|
d|----------------------------------| 
a|-------------------2-220-20--22020|  
e|-33333333-22222222----------------|

g|-------------------------------------------------------|
d|-------------------------------------------------------|
a|-------------------55555555-44444444-------------------|   x1
e|-33333333-22222222-------------------33333333-55555555-|


   SOLO (half made up by me, you could just improv here)
g|--------------------------------------------------------------|
d|--------------------------------------------------------------|
a|-2-220-2/5555-777777--2-220-2-------------2-220-2/5555-755755-|
e|------------------------------3333-222222---------------------|

g|---------------------|
d|---------------------|
a|-2-220-2-------------| x1
e|---------3333-555555-|




  BREAK (Whiles drums, guitar, and vocals take over for a bit)




   CHORUS
g|----------------------------------|
d|----------------------------------| 
a|-------------------2-220-20--22020|  
e|-33333333-22222222----------------|

g|----------------------------------|
d|----------------------------------| 
a|-------------------2-220-20--22020|  
e|-33333333-22222222----------------|

g|-------------------------------------------------------|
d|-------------------------------------------------------|
a|-------------------55555555-44444444-------------------|   x1
e|-33333333-22222222-------------------33333333-55555555-|

    BRIDGE
g|-----------------------------------------------|
d|-----------------------------------------------|   
a|-2-2-2-22002-2-2-555555-2-2-2-22002-2-2-555555-|  x1
e|-----------------------------------------------|




Enjoy.
            
Submit corrections

comments powered by Disqus
↑ Back to top | Marilyn Manson Bass for Arma-goddamn-motherfucking-geddon. Lyrics for acoustic guitar and electric guitar. Tablatures and chords are parodies/interpretations of the original songs. You may use it for private study, scholarship, research or language learning purposes only