>
 >
Arma-goddamn-motherfucking-geddon

Arma-goddamn-motherfucking-geddon Guitar Tabs

Marilyn Manson - Arma-goddamn-motherfucking-geddon chords, tabs, tablatures, lyrics

Guitar lessons | Add/correct | Request | Top 50 tabs Artists:  A B C D E F G H I J K L M N O P Q R S T U V W X Y Z 0-9

Arma-goddamn-motherfucking-geddon Guitar Tabs – Marilyn Manson

CD, Sheet music, Poster

Do you like Arma-goddamn-motherfucking-geddon? Share with your friends now
Bass TabsBass Tabs v2TabsTabs v2
--------------------------------------------------------------------------

Arma-Goddamn-Motherfucking Geddon - Marilyn Manson
-------------------------------------------------------------------------------

Tuning: Standard

x4
e|-----------------------|
B|-------------7~~~------|
G|------4~-7~------------|
D|---4~------------------|
A|-----------------------|
E|-----------------------|
Don't be fooled, what's played under this is really the keyboard and bass.  This is the 
guitar part for this section.

Then, the guitar is silent for the verse, pre-chorus, etc.

But it comes back for this, the chorus.
x2
e|---------------------------------------|
B|---------------------------------------|
G|---------------------------------------|
D|-5-5-5-5-4-4-4-4--9-7/9-7/9--9-7/9-7/9-|
A|-5-5-5-5-4-4-4-4--9-7/9-7/9--9-7/9-7/9-|
E|-3-3-3-3-2-2-2-2--7-5/7-5/7--7-5/7-5/7-|

the rest of the chorus, played once at the end of doing the first part twice.
e|-------------------------------------------------|
B|-------------------------------------------------|
G|-----------------7-7-7-7-6-6-6-6-----------------|
D|-5-5-5-5-4-4-4-4-7-7-7-7-6-6-6-6-5-5-5-5-7-7-7-7-|
A|-5-5-5-5-4-4-4-4-5-5-5-5-4-4-4-4-5-5-5-5-7-7-7-7-|
E|-3-3-3-3-2-2-2-2-----------------3-3-3-3-5-5-5-5-|

bridge x2
This is split into two parts.
e|----------------------------------------------|
B|----------------------------------------------|
G|----------------------------------------------|
D|----------------------------------------------|
A|----------------------------------------------|
E|-7\--7\--7\--7-7-5-5-7\--7\--7\--/10-10-10-10-|
-|                                              |
e|----------------------------------------------|
B|----------------------------------------------|
G|----------------------------------------------|
D|----------------------------------------------|
A|----------------------------------------------|
E|---7\--7\--7\7-7-5-5---7\--7\--7\/10-10-10-10-|

repeat verse and pre-chorus with guitars silent, again.  (The lyrics change though, of course.)

then:
chorus x1 (all sections together, and played the correct amount of times individually.)

Guitar solo (mostly made up of whammy bar and scratching)

Chorus 2 x6
Mute it just so that it makes a sound.  For results closets to the actual song, have 
fingers touching somewhere around the 9th fret, and press lightly.  Then pick the strings 
your fingers are in this position.
e|-----------------------|
B|-----------------------|
G|-----------------------|
D|-----------------------|
A|-----------------------|
E|-x-x-xx-xx-xx-x-xxxxxx-|

chorus x1 (all sections together, and played the correct amount of times individually.)

bridge x2

| /  slide up
| \  slide down
| h  hammer-on
| p  pull-off
| ~  vibrato
| +  harmonic
| x  Mute note
===============================================================================





Comments


Popular Marilyn Manson tabs & chords
1996 1 Bass Tabs
Devour Bass Tabs
Heart Shaped Glasses Bass Tabs
Little Horn 3 Bass Tabs
Misery Machine Bass Tabs
Coma White 5 Tabs
Great Big White World 4 Tabs
Longhard Road Out Of Hell Tabs
Target Audience 1 Tabs
Place In The Dirt Ukulele


Song lyrics



↑ Back to top | Tablatures and chords are parodies/interpretations of the original songs. You may use it for private study, scholarship, research or language learning purposes only
© 2014 AZChords.com Contact us | Privacy policy | DMCA | Add/correct tabs | Request tabs | Top 50 tabs