» » »

Marilyn Manson, Arma-goddamn-motherfucking-geddon Bass tabs (ver.1)

Artists:  A B C D E F G H I J K L M N O P Q R S T U V W X Y Z # 

Arma-goddamn-motherfucking-geddon Bass tabs (ver.1)

Marilyn Manson Tabs
 Rating:
4/5 (4 votes)
Arma-goddamn-motherfucking-geddon lessons Tabs too difficult? Try these video lessons and learn fast
                Arma-goddamn-motherf**kin-geddon by Marilyn Manson


Intro
|-----------------------------------|
|-----------------------------------|
|--3--3--3--3-1-3--3--3/6>>--6>>----| 
|-----------------------------------| x2

Verse
|------------------------------------------------|
|------------------------------------------------|
|--3--3-1-3-1/3-3--1-3-1-3--3-1-3-1/6--6-6-6--6--|
|------------------------------------------------| x4

Chorus
|--------------------------------------------|
|--------------------------------------------|
|------------------3--3-1-3-1-3--3--3-1-3-1--|
|--4-4-4-4-3-3-3-3---------------------------| x2

|--------------------------------------------------|
|--------------------------------------------------|
|------------------6-6-6-6-5-5-5-5-----------------|
|--4-4-4-4-3-3-3-3-----------------4-4-4-4-6-6-6-6-|

Repeat from beginning as is.

Then this bit at the solo:
|--------------------------|
|-------------1------------|
|--3--3-1-3-1---3--1-0-1---|
|--------------------------| x4

Break

The play Chorus and finally Intro.
            
Submit corrections

comments powered by Disqus
↑ Back to top | Marilyn Manson Bass for Arma-goddamn-motherfucking-geddon. Lyrics for acoustic guitar and electric guitar. Tablatures and chords are parodies/interpretations of the original songs. You may use it for private study, scholarship, research or language learning purposes only