» » »

Marilyn Manson, Arma-goddamn-motherfuckin-geddon Tabs (ver.2)

Artists:  A B C D E F G H I J K L M N O P Q R S T U V W X Y Z # 

Arma-goddamn-motherfuckin-geddon Tabs (ver.2)

Marilyn Manson Tabs
 Rating:
4.5/5 (8 votes)
Arma-goddamn-motherfuckin-geddon lessons Tabs too difficult? Try these video lessons and learn fast
1
                Intro- x4
e:------------||
B:------------||
G:--------11^-||
D:-9-9-12-----||
A:--9---------||
E:------------||

Verse- x4 (its all i can make out with my cruddy speakers)
e:-------------------------------------||
B:-------------------------------------||
G:-------------------------------------||
D:-------------------------------------||
A:-2-2-02-02-2-02-02-2-020--5-55-55-55-||
E:-------------------------------------||

Chorus
e:-------------------------||
B:-------------------------||
G:-------------------------||
D:-5---4----9-9-7979-9-797-|| x2
A:-5---4----9-9-7979-9-797-||
E:-3---2----7-7-5757-7-575-||

e:-----------------------||
B:-----------------------||
G:---------7---6---------||
D:-5---4---7---6---5---7-|| after 2nd time
A:-5---4---5---4---5---7-||
E:-3---2-----------3---5-||

e:------------------------------||
B:------------------------------||
G:------------------------------||
D:------------------------------||  x2
A:------------------------------||
E:-7/-7/-7/-7/-7/-7/-7/-10-1010-|| (they are tens)
                          /\ - - - - \
Verse (again)                         \
                                       |
Chorus (again) the solo is in place of |

Solo (the solo was extremely hard to here so i just play this although you can just make 
your own stuff)

e:-12---12----12---12/-171717171717171714141414-171717171717171714141414----|
B:-15b--15--15--15------------------------------------------------------17b-|
G:--------------------------------------------------------------------------|
D:--------------------------------------------------------------------------|
A:--------------------------------------------------------------------------|
E:--------------------------------------------------------------------------|

e:-----17-----||
B:-19b-20b^^^-||
G:------------||
D:------------|| (for those who think it looks confusing, give it a try
A:------------|| 'cause it's actually pretty easy)
E:------------||

Interlude
e:-----------------------||
B:-----------------------||
G:-----------------------||
D:-xxx-xx-x-xx-x-xxxxxxx-|| x6 (mute somewhere b/t the 7th & 11th fret)
A:-xxx-xx-x-xx-x-xxxxxxx-||
E:-xxx-xx-x-xx-x-xxxxxxx-||

Chorus/Outro

thats it everybody, the entire song, well as accurate as i could get it, but im sure its 
correct, but if anyone has some notes i left out tell me please!

(p.s. its my first tab so dont hate me)

                   KEEP ON ROCKIN FELLOW GUITARISTS!

                   COMMENT AND RATE!!!!!!!!!!!!!!!

and for you bassists i will have some bass tabs for you soon.
            
Submit corrections

comments powered by Disqus
↑ Back to top | Marilyn Manson Tabs for Arma-goddamn-motherfuckin-geddon. Lyrics for acoustic guitar and electric guitar. 1 Tablatures and chords are parodies/interpretations of the original songs. You may use it for private study, scholarship, research or language learning purposes only