» » »

Marilyn Manson, Arma-goddamn-motherfuckin-geddon Tabs (ver.1)

Artists:  A B C D E F G H I J K L M N O P Q R S T U V W X Y Z # 

Arma-goddamn-motherfuckin-geddon Tabs (ver.1)

Marilyn Manson Tabs
 Rating:
4.6/5 (9 votes)
Arma-goddamn-motherfuckin-geddon lessons Tabs too difficult? Try these video lessons and learn fast
1
                Marilyn Manson - Arma-Goddamn-Motherf**kin-Geddon

(/) Slide Up  (\) Slide Down  (h) Hammer On  (p) Pull Off  (b) Bend (r) Release (v) Vibrato


Intro (I think this is played with slide)
0:01 - 0:15
E|----------------------|
B|----------------------|
G|------------7----11\--|
D|--9-----9-------------|    x4
A|-----9----------------|
E|----------------------|

Verse 1
0:30 - 0:44

E|-------------------------------------|
B|-------------------------------------|
G|--X--X---X-X-X-X---X-X--X-X-X-X-X-X--|
D|--X--X---X-X-X-X---X-X--X-X-X-X-X-X--| x4
A|--X--X---X-X-X-X---X-X--X-X-X-X-X-X--|
E|--X--X---X-X-X-X---X-X--X-X-X-X-X-X--|

Chorus
0:44 - 1:10
E|---------------------------------------------------------------------|
B|---------------------------------------------------------------------|
G|---------------------------------------------------------------------|
D|--5-5-5-5-5-5-5-5--4-4-4-4-4-4-4-4----9---9---7-9-7-9---9---7-9-7-5--|  x2
A|--5-5-5-5-5-5-5-5--4-4-4-4-4-4-4-4----9---9---7-9-7-9---9---7-9-7-5--|
E|--3-3-3-3-3-3-3-3--2-2-2-2-2-2-2-2----7---7---5-7-5-7---7---5-7-5-3--|

E|----------------------------------------------------------------------------------|
B|----------------------------------------------------------------------------------|
G|----------------------------------------------------------------------------------|
D|--5-5-5-5-5-5-5-5-4-4-4-4-4-4-4-4-12-12-12-12-12-12-12-12-11-11-11-11-11-11-11-11-|
A|--5-5-5-5-5-5-5-5-4-4-4-4-4-4-4-4-12-12-12-12-12-12-12-12-11-11-11-11-11-11-11-11-|
E|--3-3-3-3-3-3-3-3-2-2-2-2-2-2-2-2-10-10-10-10-10-10-10-10--9--9--9--9--9--9--9--9-|

--------------------------------|
--------------------------------|
--------------------------------|
5-5-5-5-5-5-5-5-7-7-7-7-7-7-7-7-|
5-5-5-5-5-5-5-5-7-7-7-7-7-7-7-7-|
3-3-3-3-3-3-3-3-5-5-5-5-5-5-5-5-|


Verse 2

1:10 - 1:24
Guitar 1 (Guitar 2 plays the notes between the Guitar 1's notes.)
E|----------------------------------------------------|
B|----------------------------------------------------|
G|----------------------------------------------------|
D|----------------------------------------------------|  x2
A|----------------------------------------------------|
E|--7\----7\----7\----7\----7\----7\----7\---/10------|

Guitar 2
E|----------------------------------------------------|
B|----------------------------------------------------|
G|----------------------------------------------------|
D|----------------------------------------------------|  x2
A|----------------------------------------------------|
E|----7\----7\----7\----5\----7\----7\----7\-/10------|

1:24 - 1:53
E|--------------------------------------|
B|--------------------------------------|
G|--X--X---X-X-X-X---X-X--X-X-X-X-X-X---|
D|--X--X---X-X-X-X---X-X--X-X-X-X-X-X---| x8
A|--X--X---X-X-X-X---X-X--X-X-X-X-X-X---|
E|--X--X---X-X-X-X---X-X--X-X-X-X-X-X---|

Chorus
1:54 - 2:18
E|-----------------------------------------------------------------------|
B|-----------------------------------------------------------------------|
G|-----------------------------------------------------------------------|
D|--5-5-5-5-5-5-5-5--4-4-4-4-4-4-4-4----9---9---7-9-7-9---9---7-9-7-5----|  x2
A|--5-5-5-5-5-5-5-5--4-4-4-4-4-4-4-4----9---9---7-9-7-9---9---7-9-7-5----|
E|--3-3-3-3-3-3-3-3--2-2-2-2-2-2-2-2----7---7---5-7-5-7---7---5-7-5-3----|

E|----------------------------------------------------------------------------------|
B|----------------------------------------------------------------------------------|
G|----------------------------------------------------------------------------------|
D|--5-5-5-5-5-5-5-5-4-4-4-4-4-4-4-4-12-12-12-12-12-12-12-12-11-11-11-11-11-11-11-11-|
A|--5-5-5-5-5-5-5-5-4-4-4-4-4-4-4-4-12-12-12-12-12-12-12-12-11-11-11-11-11-11-11-11-|
E|--3-3-3-3-3-3-3-3-2-2-2-2-2-2-2-2-10-10-10-10-10-10-10-10--9--9--9--9--9--9--9--9-|

--------------------------------|
--------------------------------|
--------------------------------|
5-5-5-5-5-5-5-5-7-7-7-7-7-7-7-7-|
5-5-5-5-5-5-5-5-7-7-7-7-7-7-7-7-|
3-3-3-3-3-3-3-3-5-5-5-5-5-5-5-5-|

Verse 3

2:33 - 2:55
E|-------------------------------------|
B|-------------------------------------|
G|--X--X---X-X-X-X---X-X--X-X-X-X-X-X--|
D|--X--X---X-X-X-X---X-X--X-X-X-X-X-X--| x6
A|--X--X---X-X-X-X---X-X--X-X-X-X-X-X--|
E|--X--X---X-X-X-X---X-X--X-X-X-X-X-X--|

Chorus
1:54 - 2:18
E|---------------------------------------------------------------------|
B|---------------------------------------------------------------------|
G|---------------------------------------------------------------------|
D|--5-5-5-5-5-5-5-5--4-4-4-4-4-4-4-4----9---9---7-9-7-9---9---7-9-7-5--|  x2
A|--5-5-5-5-5-5-5-5--4-4-4-4-4-4-4-4----9---9---7-9-7-9---9---7-9-7-5--|
E|--3-3-3-3-3-3-3-3--2-2-2-2-2-2-2-2----7---7---5-7-5-7---7---5-7-5-3--|

E|----------------------------------------------------------------------------------|
B|----------------------------------------------------------------------------------|
G|----------------------------------------------------------------------------------|
D|--5-5-5-5-5-5-5-5-4-4-4-4-4-4-4-4-12-12-12-12-12-12-12-12-11-11-11-11-11-11-11-11-|
A|--5-5-5-5-5-5-5-5-4-4-4-4-4-4-4-4-12-12-12-12-12-12-12-12-11-11-11-11-11-11-11-11-|
E|--3-3-3-3-3-3-3-3-2-2-2-2-2-2-2-2-10-10-10-10-10-10-10-10--9--9--9--9--9--9--9--9-|

--------------------------------|
--------------------------------|
--------------------------------|
5-5-5-5-5-5-5-5-7-7-7-7-7-7-7-7-|
5-5-5-5-5-5-5-5-7-7-7-7-7-7-7-7-|
3-3-3-3-3-3-3-3-5-5-5-5-5-5-5-5-|

Outro

3:21 - 3:35
Guitar 1 (Guitar 2 plays the notes between the Guitar 1's notes.)
E|----------------------------------------------------|
B|----------------------------------------------------|
G|----------------------------------------------------|
D|----------------------------------------------------|  x2
A|----------------------------------------------------|
E|--7\----7\----7\----7\----7\----7\----7\---/10------|

Guitar 2
E|----------------------------------------------------|
B|----------------------------------------------------|
G|----------------------------------------------------|
D|----------------------------------------------------|  x2
A|----------------------------------------------------|
E|----7\----7\----7\----5\----7\----7\----7\-/10------|
            
Submit corrections

comments powered by Disqus
↑ Back to top | Marilyn Manson Tabs for Arma-goddamn-motherfuckin-geddon. Lyrics for acoustic guitar and electric guitar. 1 Tablatures and chords are parodies/interpretations of the original songs. You may use it for private study, scholarship, research or language learning purposes only