» » »

Marianne Faithfull, My Friends Have Tabs (ver.1)

Artists:  A B C D E F G H I J K L M N O P Q R S T U V W X Y Z # 

My Friends Have Tabs (ver.1)

Marianne Faithfull Tabs
 Rating:
4/5 (4 votes)
My Friends Have lessons Tabs too difficult? Try these video lessons and learn fast
1
                ----------------------------------------------------------------------------

                           (written by PJ Harvey)
----------------------------------------------------------------------------

Tuning: Full Step Down (DGCFAd)


RIFF 1: the main riff played throughout the song
in some sections it is heavily palm-muted ~
d|--------------|
A|--------------|
F|--2-55-X-5-7--|
C|--2-55-X-5-7--|
G|--0-33-X-3-5--|
D|--0-33-X-3-5--|


RIFF 2: "chorus" ~
d|---------------------------------------------------------------|
A|---------------------------------------------------------------|
F|--12121212-12121212-10101010-10101010--2-55-X-5-7--2-55-X-5-7--|
C|--12121212-12121212-10101010-10101010--2-55-X-5-7--2-55-X-5-7--|
G|--10101010-10101010-8-8-8-8--8-8-8-8---0-33-X-3-5--0-33-X-3-5--|
D|--10101010-10101010-8-8-8-8--8-8-8-8---0-33-X-3-5--0-33-X-3-5--|
                                                             

RIFF 3: "bridge"/variation ~
d|-------------------------------------------------|
A|-------------------------------------------------|
F|--2-55-X-5-7-7/1010-X-88--2-55-X-5-7-2-55-X-5-7--|
C|--2-55-X-5-7-7/1010-X-88--2-55-X-5-7-2-55-X-5-7--|
G|--0-33-X-3-5-5/8-8--X-66--0-33-X-3-5-0-33-X-3-5--|
D|--0-33-X-3-5-5/8-8--X-66--0-33-X-3-5-0-33-X-3-5--|


RIFF 4: ending variation ~
d|------------|
A|------------|
F|--2-55-X-7--|
C|--2-55-X-7--|
G|--0-33-X-5--|
D|--0-33-X-5--|

============================================================================

STRUCTURE:
Riff 1 x 16
Riff 2 x 2
Riff 1 x 8
Riff 2 x 2
Riff 3 x 2
Riff 2 x 2
Riff 1 (palm-muted) x 8
Riff 2 x 4
Riff 4 x 1


KEY:
 / = slide up
 x = Mute note

============================================================================
            
Submit corrections

comments powered by Disqus
↑ Back to top | Marianne Faithfull Tabs for My Friends Have. Lyrics for acoustic guitar and electric guitar. 1 Tablatures and chords are parodies/interpretations of the original songs. You may use it for private study, scholarship, research or language learning purposes only