» » »

Maria Mena, You're The Only One Bass tabs (ver.1)

Artists:  A B C D E F G H I J K L M N O P Q R S T U V W X Y Z # 

You're The Only One Bass tabs (ver.1)

Maria Mena Tabs
 Rating:
4/5 (4 votes)
You're The Only One lessons Tabs too difficult? Try these video lessons and learn fast
1
                Intro:

G|---------------------------------|
D|-----------------0-0-0-0-0-0-0-0-|
A|-0-0-0-0-0-0-0-0-----------------| x2
E|---------------------------------|


Verses 1 and 2:
G|---------------------------------|
D|-----------------0-0-0-0-0-0-0-0-|
A|-0-0-0-0-0-0-0-0-----------------| x4
E|---------------------------------|


Chorus:
G|-------------------------------------------------|
D|-------------------------------------------------|
A|---------------------------------5-5-5-5-5-5-5-5-| x2
E|-0-0-0-0-0-0-0-0-2-2-2-2-2-2-2-2-----------------|


Interlude: Same as Verse 1 and 2


Verse 3: Tricky part
G|---------------9-9-7-7-6-6-4-2-------2-1-------------2-1-|
D|-7--9--11--12--------------------2-4-----4---------2-----|
A|-------------------------------0-----------4-5-4-0-------|
E|---------------------------------------------------------|
            
Submit corrections

comments powered by Disqus
↑ Back to top | Maria Mena Bass for You're The Only One. Lyrics for acoustic guitar and electric guitar. 1 Tablatures and chords are parodies/interpretations of the original songs. You may use it for private study, scholarship, research or language learning purposes only