» » »

Maria Mena, Sorry Tabs (ver.1)

Artists:  A B C D E F G H I J K L M N O P Q R S T U V W X Y Z # 

Sorry Tabs (ver.1)

Maria Mena Tabs
 Rating:
4/5 (11 votes)
Sorry lessons Tabs too difficult? Try these video lessons and learn fast
1
                Maria Mena - Sorry


I can't guarantee 100% accuracy but this will do.

The song goes:

Intro
Verse
Pre-Chorus
Chorus
Verse
Pre-Chorus
Chorus x2


Intro:

E|--------0--------------3----------------0-------------3---| * These two 
B|---0------3----------3---3---------0------3---------3-----| tones are 
G|---0-2------2-----0----------------0-2------2-----0-------| kinda high-
D|---2-4*----------------------------2-4--------------------| lighted, play 
A|----------------3-------------------------------3---------| them louder 
E|-3---------------------------(0)-3------------------------| than the
                                                              others.
Verse:
E|--------0--------------3----------------0-------------3---|
B|---0------3----------3-------3-----0------3---------3-----|
G|---0-2------2-----0--------2---2---0-2------2-----0-------|
D|---2-4-------------------0---------2-4--------------------|
A|----------------3-------------------------------3---------|
E|-3-------------------------------3------------------------|

Pre-chorus:
E|-------0---------------2---------------0---------------5---------|
B|-----3---3-----------3---3-----------3---3-----------3-------3---|
G|---0-0-----0-------2-------2-------0-0-----0-------2-------2---2-|
D|-2-----------2---------------4---2-----------2-----------0-------|
A|-----------------2-------------------------------2---------------|
E|-----------------------------------------------------------------|

E|-------0---------------------------------------)2----------------|
B|-----3---3---------------0----------------3---(-3----------------|
G|---0-0-----0---------0-2-----2----------0------)2----------------|
D|-2-----------2-----0-----------0------2-------(-0----------------|
A|------------------------------------3----------)-----------------|
E|-----------------3---------3------------------(------------------|

Chorus:
E|(3)------------------------------3-------------------------------|
B|---------------------3-----3-----------------3-----3-----3-------|
G|-------0-----0-----2-----2-----------0-----0-----2-----2---------|
D|-----0-----2-----0-----0-----0-----0-----2-----0-----0-----------|
A|---------3-----------------------------3-------------------------|
E|---3-----------------------------3-------------------------------|

E|-3---------------------5---------3------------------(5)----------|
B|-------------3-------2-----------------------3-----2-------------|
G|-----0-----0-------3-------2---------0-----0-----3---------------|
D|---0-----2-------0-------0---0-----0-----2-----0-----0-----------|
A|-------3-------------------------------3-------------------------|
E|-3-------------------------------3-------------------------------|


There's some variations in the second verse and last choruses, 
but i'll leave them to you. :)
            
Submit corrections

comments powered by Disqus
↑ Back to top | Maria Mena Tabs for Sorry. Lyrics for acoustic guitar and electric guitar. 1 Tablatures and chords are parodies/interpretations of the original songs. You may use it for private study, scholarship, research or language learning purposes only