» » »

Maria Mena, Miss You Love Tabs (ver.1)

Artists:  A B C D E F G H I J K L M N O P Q R S T U V W X Y Z # 

Miss You Love Tabs (ver.1)

Maria Mena Tabs
 Rating:
4/5 (5 votes)
Miss You Love lessons Tabs too difficult? Try these video lessons and learn fast
                Maria Mena
Miss you love

Capo: 2

Please rate this tab and have fun with it.

Intro:

    Bm         C
|--------1-----------0---|
|------3-----------1-----|
|----4-----------0-------|
|------------------------|
|--2---------2-3---------|
|------------------------| 2x

Verse:

     Bm         C
|--------2-----------0---|
|------3-----------1-----|
|----4-----------0-------|
|------------------------|
|--2---------2-3---------|
|------------------------| 4x

    Bm                          C
I've run out of complicated theories

So now I'm taking back my words
Bm                        C
and I'm preparing for the breakdown
Bm                               C
Your t-shirt's lost its smell of you

and the bathroom's still a mess
Bm                                C
remind me why we decided this was for the best

Chorus: (Strumming)


          D         Em
Because I miss you love
   D         Em
I miss you love
   D         Em
I miss you love
  D        Am
I miss you love.

Verse:

|--------2-----2--------0-----0--|
|------3-----3--------1-----1----|
|----4-----4--------0-----0------|
|--------------------------------|
|--2--------------3--------------|
|--------------------------------| 4 x

Chorus: (Strumming)


          D         Em
Because I miss you love
   D         Em
I miss you love
   D         Em
I miss you love
  D        Am
I miss you love.

Bridge..

 
Verse:

     Bm         C
|--------2-----------0---|
|------3-----------1-----|
|----4-----------0-------|
|------------------------|
|--2---------2-3---------|
|------------------------| 2x

Chorus: (Strumming)


          D         Em
Because I miss you love
   D         Em
I miss you love
   D         Em
I miss you love
  D        Am
I miss you love.
            
Submit corrections

comments powered by Disqus
↑ Back to top | Maria Mena Tabs for Miss You Love. Lyrics for acoustic guitar and electric guitar. Tablatures and chords are parodies/interpretations of the original songs. You may use it for private study, scholarship, research or language learning purposes only