» » »

Maria Mena, Better Than Nothing Tabs (ver.1)

Artists:  A B C D E F G H I J K L M N O P Q R S T U V W X Y Z # 

Better Than Nothing Tabs (ver.1)

Maria Mena Tabs
Rating:
5/5 (1 vote)
Better Than Nothing lessons Tabs too difficult? Try these video lessons and learn fast
                Maria Mena - Better Than Nothing


Intro

E-|-----0-----0---0---|-----0-----0---0---|
B-|---0-0-0-0---0---0-|---0-0-0-0---0---0-|
G-|-------------------|-------------------|
D-|-2-----------------|-2-----------------|
A-|-------------------|-------------------|
E-|-------------------|-------------------|

E-|-----0-----0---0---|-----0-----0---0---|
B-|-----0-0-0---0---0-|-----0-0-0---0---0-|
G-|-------------------|-------------------|
D-|---2---------------|---2---------------|
A-|-0-----------------|-0-----------------|
E-|-------------------|-------------------|

Couplet

E-|-----0-----0---0---|-----0-----0---0---|
B-|---0-0-0-0---0---0-|---0-0-0-0---0---0-|
G-|-------------------|-------------------|
D-|-2-----------------|-2-----------------|
A-|-------------------|-------------------|
E-|-------------------|-------------------|

E-|-----0-----0---0---|-----0-----0---0---|
B-|-----0-0-0---0---0-|-----0-0-0---0---0-|
G-|-------------------|-------------------|
D-|---2---------------|---2---------------|
A-|-0-----------------|-0-----------------|
E-|-------------------|-------------------| 4 x

Refrein

E-|-----0-----0---0---|-----0-----0---0---|
B-|-----0-0-0---0---0-|---0-0-0-0---0---0-|
G-|-------------------|-------------------|
D-|---2---------------|-0-----------------|
A-|-4-----------------|-------------------|
E-|-------------------|-------------------|

E-|-----0-----0---0---|-----0-----0---0---|
B-|---0-0---0---0---0-|---0-0---0---0---0-|
G-|-------------------|-------------------|
D-|-2-----2-----------|-2-----2-----------|
A-|-------------------|-------------------|
E-|-------------------|-------------------|

E-|-----0-----0---0---|-----0-----0---0---|
B-|-----0---0---0---0-|---0-0-0-0---0---0-|
G-|-------------------|-------------------|
D-|---2---2-----------|-0-----------------|
A-|-4-----------------|-------------------|
E-|-------------------|-------------------|

E-|-----0-----0---0---|-----0-------------|
B-|---0-0---0---0---0-|---0-0---0---------|
G-|-------------------|-------------------|
D-|-2-----2-----------|-2-----2-----------|
A-|-------------------|-------------------|
E-|-------------------|-------------------|

Tussenspel

E-|-----0-----0---0---|-----0-----0---0---|
B-|---0-0-0-0---0---0-|-----0-0-----0---0-|
G-|-------------------|-------------------|
D-|-0-----------------|---2-----2---------|
A-|-------------------|-4-----------------|
E-|-------------------|-------------------|

E-|-----0-----0---0---|-----0-----0---0---|
B-|---0-0---0---0---0-|---0-0---0---0---0-|
G-|-------------------|-------------------|
D-|-2-----2-----------|-2-----2-----------|
A-|-------------------|-------------------|
E-|-------------------|-------------------|

E-|-----0-----0---0---|-----0-----0---0---|
B-|---0-0-0-0---0---0-|-----0-0-----0---0-|
G-|-------------------|-------------------|
D-|-0-----------------|---2-----2---------|
A-|-------------------|-4-----------------|
E-|-------------------|-------------------|

E-|-----0-----0---0---|-------0-----------|
B-|---0-0---0---0---0-|---0-0-------------|
G-|-------------------|-------------------|
D-|-2-----2-----------|-2-----------------|
A-|-------------------|-------------------|
E-|-------------------|-------------------|

Couplet

E-|-----0-----0---0---|-----0-----0---0---|
B-|---0-0---0---0---0-|---0-0---0---0---0-|
G-|-------------------|-------------------|
D-|-2-----2-----------|-2-----2-----------|
A-|-------------------|-------------------|
E-|-------------------|-------------------|

E-|-----0-----0---0---|-----0-----0---0---|
B-|-----0-0-0---0---0-|-----0-0-0---0---0-|
G-|-------------------|-------------------|
D-|---2---------------|---2---------------|
A-|-0-----------------|-0-----------------|
E-|-------------------|-------------------| 4 x

Refrein

E-|-----0-----0---0---|-----0-----0---0---|
B-|-----0-0-0---0---0-|---0-0-0-0---0---0-|
G-|-------------------|-------------------|
D-|---2---------------|-0-----------------|
A-|-4-----------------|-------------------|
E-|-------------------|-------------------|

E-|-----0-----0---0---|-----0-----0---0---|
B-|---0-0---0---0---0-|---0-0---0---0---0-|
G-|-------------------|-------------------|
D-|-2-----2-----------|-2-----2-----------|
A-|-------------------|-------------------|
E-|-------------------|-------------------|

E-|-----0-----0---0---|-----0-----0---0---|
B-|-----0-0-0---0---0-|---0-0-0-0---0---0-|
G-|-------------------|-------------------|
D-|---2---------------|-0-----------------|
A-|-4-----------------|-------------------|
E-|-------------------|-------------------|

E-|-----0-----0---0---|-----0-----0---0---|
B-|---0-0---0---0---0-|---0-0---0---0---0-|
G-|-------------------|-------------------|
D-|-2-----2-----------|-2-----2-----------|
A-|-------------------|-------------------|
E-|-------------------|-------------------|


Outtro

E-|-----0-----0---0---|-----0-----0---0---|
B-|-----0---0---0---0-|-----0---0---0---0-|
G-|-------------------|-------------------|
D-|---2---2-----------|---2---2-----------|
A-|-0-----------------|-0-----------------|
E-|-------------------|-------------------|

E-|-----0-----0---0---|-----0-----0---0---|
B-|---0-0---0---0---0-|---0-0---0---0---0-|
G-|-------------------|-------------------|
D-|-2-----2-----------|-2-----2-----------|
A-|-------------------|-------------------|
E-|-------------------|-------------------|

E-|-----0-----0---0---|-----0-----0---0---|
B-|-----0-0-----0---0-|-----0-0-----0---0-|
G-|---2-----2---------|---2-----2---------|
D-|-2-----------------|-2-----------------|
A-|-------------------|-------------------|
E-|-------------------|-------------------|


~~~~~~~~~~~~~~~~~~~~~~~~~~~~~~~~~~~~~~~~~


Couplet

I don't want to have | to build this
I don't want to have | to fit in 
I don't want to have | to need someone 
But I do 

I don't want to have | to attract boys
I don't want to have | to be here
I don't want to have | to eat to fill a hole
But I do

Refrein

But it's better than | nothing at all
But it's better than | nothing at all

Couplet

I don't want to have | to be angry at you
I don't want to have | to blame it on my father
I don't want to feel | sick around you
But I do

I don't want to ever | fall in love
I don't want to feel | so insecure
I don't want to have | to write this to explain 
Still I do

Refrein

This feels better than | nothing at all
This feels better than | nothing at all
            
Submit corrections

comments powered by Disqus
↑ Back to top | Maria Mena Tabs for Better Than Nothing. Lyrics for acoustic guitar and electric guitar. Tablatures and chords are parodies/interpretations of the original songs. You may use it for private study, scholarship, research or language learning purposes only