» » »

Few Small Bruises Chords (ver.1)

Artists:  A B C D E F G H I J K L M N O P Q R S T U V W X Y Z # 

Few Small Bruises Chords (ver.1)

Maria Mena
Rating:
0/5 (0 votes)

Tabs too difficult? Try these video lessons and learn fast.
                -------------------------------------------------------------------------------
-------------------------------------------------------------------------------


Tuning: Standard

this is the chords and tab for the song(:

Verse:

e|---------------------------------------------------------------------|
B|-------0-----2-----0---------0-----2-----0----------0------2-----0---|
G|---------------------------------------------------------------------|
D|----2-----2-----2----2----2-----2-----2-----2----2-----2------2----2-|
A|-0-------------------------------------------------------------------|
E|------------------------4---------------------2----------------------|

e|---------------------------------------------------------------------|
B|-------0-----2-----0-------------------------------------------------|
G|---------------------------------------------------------------------|
D|---2-----2------2----2-----------------------------------------------|
A|---------------------------------------------------------------------|
E|-2-------------------------------------------------------------------|
        x2

                A
Out here on the ledge
                     E
I'm not far away from stepping off
                   F#m
I've finally picked out my cloud
                              D
It's the one over there, surrounded by all that air

                     E
You reached out your hand
         D
And said "I understand,
           E
So why not come down?"

                  A                 F#m
Well except for a few small bruises, cuts and scars
     D       E
Well I'm fine
                A                 F#m
Oh except for a few small bruises, cuts and scars
     D       E
Well I'm fine

              A
Thank you for asking
                   E
I'm so glad we had this moment here
                   F#m
I know they think I'm crazy
                D
But everything I am is everything I was taught to be

                     E
You reached out your hand
         D
And said "I understand,
           E
So why not come down?"

                  A                 F#m
Well except for a few small bruises, cuts and scars
     D       E
Well I'm fine
                A                 F#m
Oh except for a few small bruises, cuts and scars
     D       E
Well I'm fine

           F#m                D
And as you read my words out loud
              F#m     D
Make me sound genius
                F#m      D
Make me sound special
              E
And maybe I'll come down

A F#m D E x2

                  A                 F#m
Well except for a few small bruises, cuts and scars
     D       E
Well I'm fine
                A                 F#m
Oh except for a few small bruises, cuts and scars
     D       E
Well I'm fine

           F#m                D
And as you read my words out loud
              F#m     D
Make me sound genius
                F#m      D
Make me sound special
              E          D
And maybe I'll come down

I hope you like the tab, comment and rate, and if you find anything that's wrong please 
me(:
            
Tabs too difficult? Try these video lessons and learn fast.


comments powered by Disqus
↑ Back to top | Tablatures and chords are parodies/interpretations of the original songs. You may use it for private study, scholarship, research or language learning purposes only