» » »

Mardonis Benny, Into The Night Bass tabs (ver.1)

Artists:  A B C D E F G H I J K L M N O P Q R S T U V W X Y Z # 

Into The Night Bass tabs (ver.1)

Mardonis Benny Tabs
 Rating:
4/5 (4 votes)
Into The Night lessons Tabs too difficult? Try these video lessons and learn fast
                Tuning: Standard

Intro:
G -----|----|-----|----|-----|----|----|----|----|----
D -----|----|-----|----|-----|----|----|----|----|----
A 3-333|----|3-333|----|3-333|----|----|----|----|----
E -----|3---|-----|3---|-----|3-33|1111|1111|1111|1111

G -----|----|-----|----|-----|----|----|----|
D -----|----|-----|----|-----|----|----|----|
A 3-333|----|3-333|----|3-333|----|----|----|
E -----|3---|-----|3---|-----|3-33|1---|----|

Verse: "She's just ..."
G -----|----|-----|----|----|----|----|-----|-----|-----|-----|
D -----|----|-----|----|----|6---|65--|-----|5----|-----|5---5|
A 3-333|----|3-333|----|---6|----|--86|8-888|-----|8-888|-----|
E -----|3---|-----|3---|4---|----|----|-----|----8|-----|-----|

G -----|-----|-----|------|
D 6---6|6----|6---6|6-----|
A -----|----6|-----|--653-|
E -----|-----|-----|-----6|

Chorus:
G -----|-----|-----|----|-----|-----|-----|----|----|----|
D -----|-----|-----|----|-----|-----|-----|----|----|----|
A -----|-----|-----|3---|-----|-----|-----|3---|----|----|
E 4---4|6---4|3---3|--6-|4---4|6---4|3---3|--6-|4-44|6-66|

G -----|----|-----|----|-----|----|----|----|----|----|
D -----|----|-----|----|-----|----|----|----|----|----|
A 3-333|----|3-333|----|3-333|----|----|----|----|----|
E -----|3---|-----|3---|-----|3-33|1111|1111|1111|1111|


2nd Verse: 
G -----|----|-----|----|----|----|----|-----|-----|-----|-----|
D -----|----|-----|----|----|6---|65--|-----|5----|-----|5---5|
A 3-333|----|3-333|----|---6|----|--86|8-888|-----|8-888|-----|
E -----|3---|-----|3---|4---|----|----|-----|----8|-----|-----|

G -----|-----|-----|----|
D 6---6|6----|6---6|6---|
A -----|----6|-----|-865|
E -----|-----|-----|---6|

G -----|----|-----|-----|------|-----|--------|----|---------|
D -----|----|-----|-----|------|-----|--5-----|----|--6------|
A 3-333|----|3-333|-----|------|-----|---865--|----|6---3----|
E -----|3---|-----|3--43|1--111|3--33|4-----86|4---|-----8643|

G ------|------|-----|-----|-----|------|----|
D ------|------|-----|-----|-----|--6-6-|----|
A ------|------|-----|-----|-----|6-----|653-|
E 1--111|3----|1--111|3---3|4--44|------|---6|


2nd Chorus:
G -----|-----|-----|----|-----|-----|-----|----|
D -----|-----|-----|----|-----|-----|-----|----|
A -----|-----|-----|3---|-----|-----|-----|3---|
E 4---4|6---4|3---3|--6-|4---4|6---4|3---3|--6-|

G -----|-----|-----|----|-----|-----|-----|----|
D -----|-----|-----|----|-----|-----|-----|----|
A -----|-----|-----|3---|-----|-----|-----|3---|
E 4---4|6---4|3---3|--6-|4---4|6---4|3---3|--6-|

G ----|----|----|
D ----|----|----|
A ----|----|653-|
E 4-44|6-66|---6|

Solo:
G ---------|---------|---------|-------------|
D ---------|---------|---------|-------------|
A --------6|---------|6-666-66-|6-666-66-653-|
E 4-444-44-|4-444-446|--------6|------------6|


G ---------|--------|----|--------|---------|
D ---------|--------|----|--------|-------8-|
A --------6|--------|3---|--------|------8-8|
E 4-444-44-|4-444-44|-643|1-1-1-34|6-6-6----|

Outro (Repeating Chorus until Fade):
G -----|-----|-----|----|-----|-----|-----|----|
D -----|-----|-----|----|-----|-----|-----|----|
A -----|-----|-----|3---|-----|-----|-----|3---|
E 4---4|6---4|3---3|--6-|4---4|6---4|3---3|--6-|
            
Submit corrections

comments powered by Disqus
↑ Back to top | Mardonis Benny Bass for Into The Night. Lyrics for acoustic guitar and electric guitar. Tablatures and chords are parodies/interpretations of the original songs. You may use it for private study, scholarship, research or language learning purposes only