» » »

Run For Cover Bass tabs (ver.1)

Artists:  A B C D E F G H I J K L M N O P Q R S T U V W X Y Z # 

Run For Cover Bass tabs (ver.1)

Marcus Miller
Rating:
0/5 (0 votes)

Hard to play? Try these video lessons and learn fast.
                A Slap Hero, hard to play?!  Not really, here we go

         H         H                   H         H	
G ---6-7----------------------7---0----------------
D --------------5----------------------------------
A -------5/7------5/7-----------------2/4-------5/7
E -0---------0-0------0-x-x-x---x---x-----3^3-x----

          H         H                  H         H  
G ---6-6----------------------7---0----------------
D ---------------5---------------------------------
A -------5/7-------5/7----------------2/4-------5/7
E -0---------0-x-------0-x-x-x--x---x-----3^3-x----
            
Hard to play? Try these video lessons and learn fast. | Correct




comments powered by Disqus
↑ Back to top | Tablatures and chords are parodies/interpretations of the original songs. You may use it for private study, scholarship, research or language learning purposes only