» » »

Witch Tabs (ver.1)

Artists:  A B C D E F G H I J K L M N O P Q R S T U V W X Y Z # 

Witch Tabs (ver.1)

Maps And Atlases
Rating:
0/5 (0 votes)

Hard to play? Try these video lessons and learn fast.
                -------------------------------------------------------------------------------
                             Witch - Maps & Atlases
-------------------------------------------------------------------------------
this tab isn't finished completely but here is what i got so far

Tuning: Standard

e|--------------------------------|
B|--------------------------------|
G|--------------------------------|
D|--------------------------------|
A|------------------------11--10--|
E|--11--13--------11--13----------|


this part is not exactly right but you should get the idea
e|-----------------------------------------------------|
B|-----------------------------------------------------|
G|-----------------------------------------------------|
D|-14-14-14-11-11-11-14-14-14-14-14-14-14-14-14--------|
A|----------------------------------------------12p11--|
E|-----------------------------------------------------|

e|-----------------------------|
B|-----------------------------|
G|-----------------------------|
D|-----------------------------|
A|--12\\\7/9-------12\\\7/9-9--|
E|--12\\\7/9-------12\\\7/9-9--|

e|-------------------------------------------------------12-12-12----------|
B|-------------------------------------12-12-12-14-14-14----------14-14-14-|
G|-------------------11-11-11-14-14-14-------------------------------------|
D|-11-11-11-14-14-14-------------------------------------------------------|
A|-------------------------------------------------------------------------|
E|-------------------------------------------------------------------------|

e|-------------------------------|
B|-------------------------------|
G|-------------------------------|
D|-14-11-14-11-14-11-14-11-------|
A|-------------------------12----|
E|----------------------------12-|


thats all i got i figure out more ill post it and 
also if you figure out a part i dont have please send it to me on my profile


| /  slide up
| \  slide down
| h  hammer-on
| p  pull-off
| ~  vibrato
| +  harmonic
| x  Mute note
===============================================================================
            
Hard to play? Try these video lessons and learn fast. | Correct




comments powered by Disqus
↑ Back to top | Tablatures and chords are parodies/interpretations of the original songs. You may use it for private study, scholarship, research or language learning purposes only