» » »

Maps And Atlases, Will Bass tabs (ver.1)

Artists:  A B C D E F G H I J K L M N O P Q R S T U V W X Y Z # 

Will Bass tabs (ver.1)

Maps And Atlases Tabs
Rating:
5/5 (1 vote)
Will lessons Tabs too difficult? Try these video lessons and learn fast
                WILL
By MAPS & ATLASES


G|---------2---5~------------------------------------|   \
D|-----5-3---5-----------------------53-53-0---3-5---|    |
A|-5-3-------------6~------5--3--1~------------------|    |
E|-------------------------------------------------3-|    |
                                                          | x2
G|----------------------------------------|               |
D|----------------------------------------|               |
A|-1-----------1~------1~------1~---------|               |
E|----5--3~------1-------1--1----1--1--1--|              /

G|---------2---5~------5~-----------------------------------------------|
D|-----5-3---5----------------------------------------------------------|
A|-5-3-------------6~------6~--6-6-6-6---5--3--1--1--1-1-1-1-1-1-1-1-1--|
E|----------------------------------------------------------------------|

G|----------------------------|     |---------|
D|----------------------------|     |---------|
A|-5--3--1--1-1-1-1-1-1-1-1-1-| x3  |-1-1-1-1-|
E|----------------------------|     |---------|

G|---------2---5~--------5~--------5~------------|
D|-----5-3---5-----------------------------------|
A|-5-3-------------5~---------6~------------6~---|
E|-----------------------------------------------|
            

comments powered by Disqus
↑ Back to top | Maps And Atlases Bass for Will. Lyrics for acoustic guitar and electric guitar. Tablatures and chords are parodies/interpretations of the original songs. You may use it for private study, scholarship, research or language learning purposes only