» » »

Maps And Atlases, Ted Zancha Tabs (ver.2)

Artists:  A B C D E F G H I J K L M N O P Q R S T U V W X Y Z # 

Ted Zancha Tabs (ver.2)

Maps And Atlases Tabs
Rating:
0/5 (0 votes)
Ted Zancha lessons Tabs too difficult? Try these video lessons and learn fast
                This was killer to tab. Hopefully my timing isn't too confusing. Enjoy.

Guitar I (Hammer-ons: 5 & 6's left hand, 7's right hand)
E|-----------------------------------------------------|
B|-----7-----7-------7-----7-------7-----7----7--7--7--|
G|-----6-------------6-------------6-------------------|
D|-----------6-------------6-------------6----6--6--6--|
A|--7-----7-------7-----7-------7-----7----------------|
E|--5-----5-------5-----5-------5-----5----------------|

Guitar II (Hammer-ons: 5 & 6's left hand, 9's right hand)
E|--------------------------------------------9--9--9--|
B|-----------------------------------------------------|
G|-----6-------------6-------------6----------9--9--9--|
D|-----------6-------------6-------------6-------------|
A|-----------------------------------------------------|
E|--5-----5-------5-----5-------5-----5----------------|




Guitar I (Hammer-ons: 2's left hand, 9 & 11's right hand
Chords fall on the capitalized syllables
    SOMEbody  reMEMber   Ted   ZANcha
E|----------------------------------------------------------|
B|----------------------------------------------------------|
G|--9-----9-------9-----9-------11-----11-------9-----9-----|
D|--2-------------2-------------2---------------2-----------|
A|--2-------------2-------------2---------------2-----------|
E|-----9-----9-------9-----9--------9------9-------9-----9--|
    1  2  &  3    1  2  &  3    1   2  &   3    1  2  &  3

Guitar II (Hammer-ons: 5 & 6's left hand, 9, 11, & 14's right hand)
Right hand movements fall on above capitalized syllables
E|-----------------------------------------------------------------------------------|
B|-----5-----5-----5------5------5------5------5------5------5------5------5------5--|
G|--9--6--9--6--9--6--11--6--11--6--11--6--14--6--14--6--14--6--14--6--14--6--14--6--|
D|-----------------------------------------------------------------------------------|
A|-----------------------------------------------------------------------------------|
E|-----------------------------------------------------------------------------------|
    1  &  2  &  3  &  1   &  2   &  3   &  1   &  2   &  3   &  1   &  2   &  3   &



Guitar I and II both follow this chord progression with some other picking
   F#min    C#min      Amaj7
E|--2--------4----------0--|
B|--2--------5----------2--|
G|--2--------6----------1--|
D|--4--------6----------2--|
A|--4--------4----------0--|
E|--2----------------------|

Guitar I and II do the same notes as the intro but in a different pattern
E|---------------       ----------------------|
B|-----7-----7---       -----7-------7--------|
G|-----6---------       -----6----------------|
D|-----------6---  5x   -------------6--------|
A|--7-----7------       -5-------5------------|
E|--5-----5------       -7-------7------------|

After this, go through the intro again until "Or did you save room for more delectable 
stars to hang on your wall?" and then jump to this part

Guitar I                       Amaj7
E|--5------5-----------------------0--------0--------0--------0-----|
B|--5------5------9------5------2-----2--0-----0--2-----2--0-----0--|
G|--6------6------9------6------------------------------------------|
D|--4---------------------------------------------------------------|
A|---------4------7------4------0--------0--------0--------0--------|
E|------------------------------------------------------------------|

Guitar II
E|--9-------4------7------4------0------0------0------0--|
B|--10------5------9------5------2------0------2------0--|
G|-------------------------------------------------------|  3rd time through
D|-------------------------------------------------------|  fast picking
A|-------------------------------------------------------|
E|-------------------------------------------------------|




Guitar I (Hammer-ons: 5 & 6's left hand, 9, 11, & 14's right hand)
This part sounds a lot like one of the parts before with a slight change
E|-----------------------------------------------------------------------|
B|-----5-----5-------------5------5----------5------5----------5------5--|
G|--9--6--9--6---------11--6--11--6------14--6--14--6------14--6--14--6--|
D|-----------------------------------------------------------------------|
A|-----------------------------------------------------------------------|
E|-----------------------------------------------------------------------|
    1  2  &  3         1   2  &   3      1   2  &   3      1   2  &   3
Guitar II  This part harmonizes with the Bass part
E|--------------------------------------------------------------------|
B|--------------------------------------------------------------------|
G|--------------------------------------------------------------------|
D|--2--0--2--0--------------------------------------------------------|
A|------------------4--2--4--2----------------------------------2--4--|
E|----------------------------------5--4--5--4------0--2--4--5--------|
            
Submit corrections

comments powered by Disqus
↑ Back to top | Maps And Atlases Tabs for Ted Zancha. Lyrics for acoustic guitar and electric guitar. Tablatures and chords are parodies/interpretations of the original songs. You may use it for private study, scholarship, research or language learning purposes only