» » »

Ted Zancha Bass tabs (ver.1)

Artists:  A B C D E F G H I J K L M N O P Q R S T U V W X Y Z # 

Ted Zancha Bass tabs (ver.1)

Maps And Atlases
Rating:
5/5 (2 votes)

Hard to play? Try these video lessons and learn fast.
                TED ZANCHA
By MAPS AND ATLASES


 "Frame the shot..."
G|------------------|
D|------------------|
A|------------------|
E|------------------|

 "Did you save the clippings from..."
G|--------11--------11--------11----------|
D|---11h14-----11h14-----11h14------11-14-|
A|-12--------12--------12--------12-------| x2
E|----------------------------------------|

 "to hang on your wall"
G|--------11--------11--------11-|--------|
D|---11h14-----11h14-----11h14---|--------|
A|-12--------12--------12--------|--------|
E|-------------------------------|--------|

 "Does anyone here remember Ted Zancha..."
G|-18-16h18p16--14---14---------------------------14h16-|
D|-----------------16--16--14---14----------14h16-------|
A|----------------------------16--16--14h16-------------| x8
E|------------------------------------------------------|

 "There's almost no one here to..."
G|------------------------------------------|
D|-16~--11~---------------------------------|
A|-----------12-12---12-12---12-12---12-12--|
E|------------------------------------------|
                                                         (funky timing)
G|---------------13~-------------------------------------|-------------|
D|-16~-16-14-11~-----11-9-11-----------------------------|-------------|
A|---------------------------12-12--12-12--12-12--12-12--|-12-12-12...-|
E|-------------------------------------------------------|-------------|

 "Frame the shot..."
G|-------------------------|
D|-------------------------|
A|---------------------4-7-| x8
E|-5-5---5-5---5-5---5-----|

 "Oooooh-oooooh..."
G|------13~---------------------------------|
D|-16~--------------------------------------|
A|-----------12-12---12-12---12-12---12-12--|
E|------------------------------------------|

 "Everyone that you know just lives on and..."
G|-14-13-11----------13-11-----------------------------------------|
D|----------14-11-14-------14-11----11-----14-14-------14-14-13-13-|
A|-------------------------------14----12--------14-14-------------| x3
E|-----------------------------------------------------------------|

 "Oooooh-oooooh..."
G|-18-16h18p16--14---14---------------------------------------|
D|-----------------16--16--14---14----14-14-------14-14-13-13-|
A|----------------------------16--16--------14-14-------------| x2
E|------------------------------------------------------------|

G|------------------------------------|     |---|
D|-11-9h11p9--7--7----------------7h9-|     |-7-|
A|--------------9-9--7--7------7h9----| x12 |---|
E|---------------------9-9--7h9-------|     |---|
            
Hard to play? Try these video lessons and learn fast. | Correct




comments powered by Disqus
↑ Back to top | Tablatures and chords are parodies/interpretations of the original songs. You may use it for private study, scholarship, research or language learning purposes only