» » »

Maps And Atlases, Songs For Ghosts To Haunt To Tabs (ver.1)

Artists:  A B C D E F G H I J K L M N O P Q R S T U V W X Y Z # 

Songs For Ghosts To Haunt To Tabs (ver.1)

Maps And Atlases Tabs
Rating:
5/5 (1 vote)
Songs For Ghosts To Haunt To lessons Tabs too difficult? Try these video lessons and learn fast
                (Intro)
Everything in this tab is tapped except the chords played by guitar one.  
If there is a "T" over the note, tap with the right hand.  If there is not
 a "T", tap with the left.

Gtr I
       T  T    T  T    T  T    T  T      T  T    T  T    T  T    T  T
    |--3--| |--3--| |--3--| |--3--|   |--3--| |--3--| |--3--| |--3--|
    E  E  E E  E  E E  E  E E  E  E   E  E  E E  E  E E  E  E E  E  E
||----------------------------------|-----------------------------------||
||o---------------------------------|----------------------------------o||
||----11-11---11-11---11-11---11-11-|---11-11---11-11---11-11---11-11---||
||--5-------5-------5-------5-------|-----------------------------------||
||o---------------------------------|-5-------5-------5-------5--------o||
||----------------------------------|-----------------------------------||
|
|   Gtr II
|      T  T    T  T    T  T    T  T      T  T    T  T    T  T    T  T
|   |--3--| |--3--| |--3--| |--3--|   |--3--| |--3--| |--3--| |--3--|
|   E  E  E E  E  E E  E  E E  E  E   E  E  E E  E  E E  E  E E  E  E
||----------------------------------|-----------------------------------||
||o---------------------------------|----------------------------------o||
||----11-11---11-11---11-11---11-11-|---11-11---11-11---11-11---11-11---||
||--5-------5-------5-------5-------|-5-------5-------5-------5---------||
||o---------------------------------|----------------------------------o||
||----------------------------------|-----------------------------------||


   Q       H.
|----------------------------------|
|----------------------------------|
|--9-------------------------------|
|--9-------------------------------|
|-10-------------------------------|
|----------------------------------|
|
|  T     T     T     T     T     T
|  S S S S S S S S S S S S S S S S
|----------------------------------|
|--------------7p3h5---------------|
|--------7p0h4-------7p0h4-------7p|
|--7p0h5-------------------7p0h5---|
|----------------------------------|
|----------------------------------|


   E.     E.     E.    Q..                Q  H.        W
|--------------------------------------|-------------|--------------------|
|--------------------------------------|-------------|--------------------|
|--9------9------9---------------------|--9----------|-4------------------|
|--9------9------9---------------------|--9----------|-4------------------|
|-10-----10-----10---------------------|-10----------|-5------------------|
|--------------------------------------|-------------|--------------------|
|
|      T      T      T       T     T         T           T      T     T
|  S S S  S S S  S S S S   S S S S S S    Q  H    Q      E. E.  E  Q  E E
|--------------------------------------|-----7p===3--|--------------------|
|------7p=3h5----------------------7p3h|==5----------|---7p=3-------------|
|--4p0--------7p=0h4---------7p4p0-----|-----7p===4--|----------7p=4--7p4-|
|--------------------7p0h==5-----------|-------------|---7p=5-------------|
|--------------------------------------|-------------|----------7p=5--7p5-|
|--------------------------------------|-------------|--------------------|


  Q  H.        E.    E.     E.    Q..
|------------|------------------------------------|
|------------|------------------------------------|
|-9----------|-9-----9------9---------------------|
|-9----------|-9-----9------9---------------------|
|-7----------|-7-----7------7---------------------|
|------------|------------------------------------|
|
|    T         T        T       T         T
| Q  H    Q    S S S S  S S S S S S   S S S S S S
|------------|------------------------------------|
|----7p===0--|------------------------------------|
|------------|------------------7p0h==4h5---------|
|----7p===0--|----------7p0h4h5-----------7p0h4h5-|
|------------|-7p0h4h5----------------------------|
|------------|------------------------------------|


  Q  H.        H      H
|------------|-----------------|
|------------|-----------------|
|-9----------|-4------7--------|
|-9----------|-4------9--------|
|-7----------|-5------9--------|
|------------|-----------------|
|
|    T         T    T    T
| Q  H    Q    E.E. E Q  E E
|------------|-----------------|
|----7p===3--|-----------------|
|------------|-7p4--7p4--7p4---|
|----7p===5--|-----------------|
|------------|-7p5--7p5--7p5---|
|------------|-----------------|
            
Submit corrections

comments powered by Disqus
↑ Back to top | Maps And Atlases Tabs for Songs For Ghosts To Haunt To. Lyrics for acoustic guitar and electric guitar. Tablatures and chords are parodies/interpretations of the original songs. You may use it for private study, scholarship, research or language learning purposes only