» » »

Solid Ground Bass tabs (ver.1)

Artists:  A B C D E F G H I J K L M N O P Q R S T U V W X Y Z # 

Solid Ground Bass tabs (ver.1)

Maps And Atlases
Rating:
3/5 (1 vote)

Hard to play? Try these video lessons and learn fast.
                Riff #1 (Play 2x)

G|--------------|--------------|--------------|--------------|
D|--------------|--------------|--------------|--------------|
A|-2~-----------|-0~-----------|--------------|-0~-----------|
E|--------------|--------------|-2~-----------|--------------|


G|--------------|--------------|--------------|--------------|
D|--------------|-0~-----------|-4~-----------|-2~-----------|
A|-2~-----------|--------------|--------------|--------------|
E|--------------|--------------|--------------|--------------|



Riff #2 (Play Once and then first line Once) (0:28)

G|--------------|--------------|--------------|--------------|
D|--------------|--------------|--------------|--------------| ~This line
A|-2~-----------|-0~-----------|--------------|-0-0~---------|
E|--------------|--------------|-2-2~---------|--------------|


G|--------------|--------------|--------------|--------------|
D|--------------|-0~-----------|-4-4~---------|-2-2~---------| 
A|-2~-----------|--------------|--------------|--------------|
E|--------------|--------------|--------------|--------------|


Then, play Riff #1, but pluck it in quarter notes (or add your own rhythm) till end
            
Hard to play? Try these video lessons and learn fast. | Correct




comments powered by Disqus
↑ Back to top | Tablatures and chords are parodies/interpretations of the original songs. You may use it for private study, scholarship, research or language learning purposes only