>
 >
Pigeon

Pigeon Guitar Tabs

Maps And Atlases - Pigeon chords, tabs, tablatures, lyrics

Guitar lessons | Add/correct | Request | Top 50 tabs Artists:  A B C D E F G H I J K L M N O P Q R S T U V W X Y Z 0-9

Pigeon Guitar Tabs – Maps And Atlases

CD, Sheet music, Poster

Do you like Pigeon? Share with your friends now
Tabs
-------------------------------------------------------------------------------
Pigeon- Maps and Atlases (Live at KDHX Version)
-------------------------------------------------------------------------------

My first tab. Not perfect but you get the idea.

Tuning: Standard

Intro/Verse: X12

e|------------7--5--------------------------------------------------------------|
B|------------------5-----------------------------------------------------------|
G|---------0--7--5--4-----------------------------------------------------------|
D|---0h4h5----------5-----------------------------------------------------------|
A|------------------------------------------------------------------------------|
E|------------------------------------------------------------------------------|

  "And I knew..." X1
e|-------------------------10---------------------------------------------------|
B|------3---5--7-----7----------------------------------------------------------|
G|---5------------5-----7-------------------------------------------------------|
D|----------------------7-------------------------------------------------------|
A|---5--5--5---5--5--5----------------------------------------------------------|
E|------------------------------------------------------------------------------|
        X2

e|------------7--5--------------------------------------------------------------|
B|------------------5-----------------------------------------------------------|
G|---------0--7--5--4-----------------------------------------------------------|
D|---0h4h5----------5-----------------------------------------------------------|
A|------------------------------------------------------------------------------|
E|------------------------------------------------------------------------------|

  "And I knew..." X1
e|-------------------------10---------------------------------------------------|
B|------3---5--7-----7----------------------------------------------------------|
G|---5------------5-----7-------------------------------------------------------|
D|----------------------7-------------------------------------------------------|
A|---5--5--5---5--5--5----------------------------------------------------------|
E|------------------------------------------------------------------------------|
    X2
e|------------7--5--------------------------------------------------------------|
B|------------------5-----------------------------------------------------------|
G|---------0--7--5--4-----------------------------------------------------------|
D|---0h4h5----------5-----------------------------------------------------------|
A|------------------------------------------------------------------------------|
E|------------------------------------------------------------------------------|

   "Struck out the fear..."
e|-------2----------------------------------------------------------------------|
B|--5----1----------------------------------------------------------------------|
G|--5----2----------------------------------------------------------------------|
D|------------------------------------------------------------------------------|
A|--3---------------------------------------------------------------------------|
E|------------------------------------------------------------------------------|
   X4
e|------------7--5--------------------------------------------------------------|
B|------------------5-----------------------------------------------------------|
G|---------0--7--5--4-----------------------------------------------------------|
D|---0h4h5----------5-----------------------------------------------------------|
A|------------------------------------------------------------------------------|
E|------------------------------------------------------------------------------|

  "Sometimes its hard to tell" The C9 is a half note while the D9 is a quarter note
e|------------------------------------------------------------------------------|
B|-5----7-----------------------------------------------------------------------|
G|-5----7-----------------------------------------------------------------------|
D|------------------------------------------------------------------------------|
A|-3----5-----------------------------------------------------------------------|
E|------------------------------------------------------------------------------|
   X4
e|------------7--5--------------------------------------------------------------|
B|------------------5-----------------------------------------------------------|
G|---------0--7--5--4-----------------------------------------------------------|
D|---0h4h5----------5-----------------------------------------------------------|
A|------------------------------------------------------------------------------|
E|------------------------------------------------------------------------------|

  "When the sounds the make swell"
e|-------2----------------------------------------------------------------------|
B|--5----1----------------------------------------------------------------------|
G|--5----2----------------------------------------------------------------------|
D|------------------------------------------------------------------------------|
A|--3---------------------------------------------------------------------------|
E|------------------------------------------------------------------------------|

     X3
e|------------7--5--------------------------------------------------------------|
B|------------------5-----------------------------------------------------------|
G|---------0--7--5--4-----------------------------------------------------------|
D|---0h4h5----------5-----------------------------------------------------------|
A|------------------------------------------------------------------------------|
E|------------------------------------------------------------------------------|

   "There's no-one here but me"
e|------------------------------------------------------------------------------|
B|-5----------------------------------------------------------------------------|
G|-5---5------------------------------------------------------------------------|
D|------------------------------------------------------------------------------|
A|-3---5------------------------------------------------------------------------|
E|------------------------------------------------------------------------------|

    X3
e|------------7--5--------------------------------------------------------------|
B|------------------5-----------------------------------------------------------|
G|---------0--7--5--4-----------------------------------------------------------|
D|---0h4h5----------5-----------------------------------------------------------|
A|------------------------------------------------------------------------------|
E|------------------------------------------------------------------------------|


   "No one here but me"
e|-------2----------------------------------------------------------------------|
B|--5----1----------------------------------------------------------------------|
G|--5----2----------------------------------------------------------------------|
D|------------------------------------------------------------------------------|
A|--3---------------------------------------------------------------------------|
E|------------------------------------------------------------------------------|
   Cajun Riff Guitar One

e|-15-15-15-14-14-14-12-12-12---------12-12-12----------------------------------|
B|---------------------------15-15-15----------15-15-15-12-12-12----------------|
G|---------------------------------------------------------------14-14-14-------|
D|------------------------------------------------------------------------------|
A|------------------------------------------------------------------------------|
E|------------------------------------------------------------------------------|


e|------------------------------------------------------------------------------|
B|---------------12+------------------------------------------------------------|
G|-12-12-----12+-----12+-12+----------------------------------------------------|
D|--------12+-------------------------------------------------------------------|
A|------------------------------------------------------------------------------|
E|------------------------------------------------------------------------------|

    Cajun Riff Guitar Two
e|------------------------------------------------------------------------------|
B|-15-15-15-12-12-12------------------------------------------------------------|
G|-------------------14-14-14-12-12-12-14-14-14-12-12-12-14-14-14-12-12-12------|
D|------------------------------------------------------------------------------|
A|------------------------------------------------------------------------------|
E|------------------------------------------------------------------------------|


e|------------------------------------------------------------------------------|
B|------------------------------------------------------------------------------|
G|------------------------------------------------------------------------------|
D|-12-14------------------------------------------------------------------------|
A|------------------------------------------------------------------------------|
E|------------------------------------------------------------------------------|

Dave Davison repeats the whole first half of the song again, but when the whole
 band comes in, Not Dave Davison does a harmony. Here are his parts.

   X8
e|------------------------------------------------------------------------------|
B|------------------------------------------------------------------------------|
G|------------------------------------------------------------------------------|
D|------------------------------------------------------------------------------|
A|------5--3--------------------------------------------------------------------|
E|--3-3-------------------------------------------------------------------------|


e|------------------------------------------------------------------------------|
B|-------------------7--7/10----------------------------------------------------|
G|----------4--5--7-------------------------------------------------------------|
D|----4--7----------------------------------------------------------------------|
A|--5---------------------------------------------------------------------------|
E|------------------------------------------------------------------------------|


The rest of his part is really easy, just follow Dave Davison's root notes and you're golden.
************************************

| /   slide up
| \   slide down
| h   hammer-on
| p   pull-off
| ~   vibrato
| +   harmonic
| x   Mute note
| b   Bend
| pb  Pre-bend
| br  Bend release
| pbr Pre-bend release
| brb Bend release bend

************************************





Comments


Popular Maps And Atlases tabs & chords
Daily News Bass Tabs
Every Place Is A House Bass Tabs
Solid Ground 2 Bass Tabs
Stories About Ourselves Bass Tabs
Will Bass Tabs
Fever Chords
Most Trustworthy Tin Cans Intro Tabs
Pigeons Tabs
Witch Tabs
Fever Ukulele


Song lyrics



↑ Back to top | Tablatures and chords are parodies/interpretations of the original songs. You may use it for private study, scholarship, research or language learning purposes only
© 2014 AZChords.com Contact us | Privacy policy | DMCA | Add/correct tabs | Request tabs | Top 50 tabs