» » »

Maps And Atlases, Living Decorations Bass tabs (ver.1)

Artists:  A B C D E F G H I J K L M N O P Q R S T U V W X Y Z # 

Living Decorations Bass tabs (ver.1)

Maps And Atlases Tabs
Rating:
5/5 (2 votes)
Living Decorations lessons Tabs too difficult? Try these video lessons and learn fast
                LIVING DECORATIONS
By MAPS & ATLASES


 "We were living decorations..."
G|------------------------------------|
D|------------------------------------|
A|----------22222222-5555555555555555-| x2
E|-33333333---------------------------|

 "To get another place..."
G|----------------------------|
D|----------------------------|
A|------2222-5555555555555555-| x2
E|-3333-----------------------|

 "Just found out..."        "We have the right to..."
G|--------------------|     |----------------------------|
D|--------------------|     |----------------------------|
A|------2222-55555555-| x2  |------2222-5555555555555555-|
E|-3333---------------|     |-3333-----------------------|

 "Tired of..."        "No one wants to hear..."      "Tired of..."
G|--------------|     |------------------------|     |--------------|
D|-5------------|     |-5-4--------------------|     |-5------------|
A|----5---2---5-| x2  |-----7-5----------------| x2  |----5---2---5-|
E|--------------|     |---------7-5-3-0-3--3/5-|     |--------------|

 "We were living decorations..."
G|------------------------------------|
D|----------------------(16-times)----|
A|----------22222222-5555555555555555-| x2
E|-33333333---------------------------|

 "To get another place..."
G|----------------------------|
D|--------------(16-times)----|
A|------2222-5555555555555555-| x2
E|-3333-----------------------|

 "Just found out..."
G|--------------------|     |-----------------------------------|
D|--------------------|     |-----------------(24-times)--------|
A|------2222-55555555-| x2  |------2222-55555555555555555555555-|
E|-3333---------------|     |-3333------------------------------|

G|---------------------------------------------|
D|-------------------7--7--7---7--7--7---7--7--|
A|-7-7-7-7--7-7-7-7---5--5--5---5--5--5---5--5-| x2
E|---------------------------------------------|

G|------------------------------------------4-------4--|
D|---------------------------------------2h4-4---2h4-4-|
A|-7-7-7-7--7-7-7-7--5555-3333-22222222-2-------2------|
E|-----------------------------------------------------|

 "Tired of..."        "No one wants to hear..."      "Tired of..."
G|--------------|     |------------------------|     |--------------|
D|-5------------|     |-5-4--------------------|     |-5------------|
A|----5---2---5-| x2  |-----7-5----------------| x2  |----5---2---5-|
E|--------------|     |---------7-5-3-0-3--3/5-|     |--------------|
            

comments powered by Disqus
↑ Back to top | Maps And Atlases Bass for Living Decorations. Lyrics for acoustic guitar and electric guitar. Tablatures and chords are parodies/interpretations of the original songs. You may use it for private study, scholarship, research or language learning purposes only