>
 >
Suite In Am - 3 Sarabande

Suite In Am - 3 Sarabande Guitar Tabs

Manuel Maria Ponce - Suite In Am - 3 Sarabande chords, tabs, tablatures, lyrics

Guitar lessons | Add/correct | Request | Top 50 tabs Artists:  A B C D E F G H I J K L M N O P Q R S T U V W X Y Z 0-9

Suite In Am - 3 Sarabande Guitar Tabs – Manuel Maria Ponce

CD, Sheet music, Poster

Do you like Suite In Am - 3 Sarabande? Share with your friends now
Tabs
Sarabande - Manuel Ponce (1882-1948) 

                       

Very beautiful and emotional, the slow movement of Ponce's baroque styled suite

Enjoy!


         |-3-|                      |-3-|     |-3-|     |-3-|  
     E.  T T T E.  S S S S S    E.  T T T E.  T T T E.  T T T  
E||--0---------0-------0-5---|------5-4-5-4---2-0-2-0---------|
B||--2---0---0-----0-2-----2-|--0-------------------0---3-2-3-|
G||--------2---2-------------|------------4-------------------|
D||--------------------------|--2-----------------------------|
A||--0---------4-----0-------|--------------------------------|
E||--------------------------|------------0---------4---------|


      |-3-|     |-3-|     |-3-|                                             
  E.  T T T E.  T T T E.  T T T    E  E  Q    E  E     E  E  E  E  S S S S  
----------------0---0-----------|--------0----------|--0-----------2-4-2-0-|
--2---------2-----4---4---------|--4----------------|-----0-----0--2-------|
--4---------2---------2---2-1-2-|--4--2--1----------|--1-----3-------------|
--------------------------------|-------------2--1--|----------------------|
--0-------------------2---------|-------------------|--4--------2--1-------|
------4-2-4-2-------------------|--0----------------|----------------------|


                            |-3-|                                   
  E.  S E  E  E  S S    E.  T T T E  E  E  E     E  E  E  E  E  E   
------0----------5-4-|--2---------2-----1-----|--2-----------------|
--4-----7--0--7------|------0---0-2--3--2--0--|--------------------|
--6-----6------------|--2-----2---------------|--2-----------1--2--|
--------------7------|------------------------|-----------4--------|
--------6------------|--4---------0--2--4-----|-----0--4-----------|
--7-----------8------|------------------------|--2-----------------|


                           |-3-|     |-3-|                    |-3-|         
  E.  S E  E  E  E     E.  T T T E.  T T T E.  S    E.  S E.  T T T E  S S  
------0-2-----------|--7---------7---7-5-7-5-----|--5---4-4---------4--2-0-|
--4--------------4--|--5---7-5-7-5---------5---4-|--4-----4---4-2-4-2------|
--4-----------------|----------------------------|-------------------------|
--------------------|----------------------4-----|-------------------------|
-----------4--2--0--|------------4---------------|--2---------------0------|
--------------------|--4-------------------------|--------0----------------|


  E.  S E.  S E.  S    E.   S E.  S E.   S    E.  S E  E   S S S S  
--------0---7-------|--4---12-5---0-7---12-|--9--------------------|
--4---0-------7---0-|----------------------|--------------10-9-7---|
--6-----------------|----------------------|------9-8------------9-|
--------------------|--2------4-----6------|--7--------------------|
--------4-----6-----|----------------------|-----------------------|
--7-----------------|----------------------|--------7--8---9-------|


                          |-3-|                  |-3-|                
  Q    E.  S E.  S    E.  T T T Q    Q       E.  T T T E.  S S S S S  
-------0-----------|--0---------0---------|--0---------0-------0-5---|
--7--------------4-|----------------------|--2---0---0-----0-2-----2-|
--6--------1-2-----|------2-1-2-1---------|--------2---2-------------|
-------4-----------|-----------------2----|--------------------------|
--0----2-----2-----|----------------------|--0---------4-----0-------|
-------------------|--0-------------------|--------------------------|


      |-3-|     |-3-|     |-3-|        |-3-|     |-3-|     |-3-|  
  E.  T T T E.  T T T E.  T T T    E.  T T T E.  T T T E.  T T T  
------5-4-5-4---2-0-2-0---------|----------------0---0-----------|
--0-------------------0---3-2-3-|--2---------2-----4---4---------|
------------4-------------------|--4---------2---------2---2-1-2-|
--2-----------------------------|--------------------------------|
--------------------------------|--0-------------------2---------|
------------0---------4---------|------4-2-4-2-------------------|


  E  E  Q    E  E     E  E  E  E  S S S S    E.  S E  E  E  S S  
--------0----------|--0-----------2-4-2-0-|------0----------5-4-|
--4----------------|-----0-----0--2-------|--4-----7--0--7------|
--4--2--1----------|--1-----3-------------|--6-----6------------|
-------------2--1--|----------------------|--------------7------|
-------------------|--4--------2--1-------|--------6------------|
--0----------------|----------------------|--7-----------8------|


      |-3-|                                                        
  E.  T T T E  E  E  E     E  E  E  E  E  E     E.  S E  E  E  E   
--2---------2-----1-----|--2-----------------|------0-2-----------|
------0---0-2--3--2--0--|--------------------|--4--------------4--|
--2-----2---------------|--2-----------1--2--|--4-----------------|
------------------------|-----------4--------|--------------------|
--4---------0--2--4-----|-----0--4-----------|-----------4--2--0--|
------------------------|--2-----------------|--------------------|


      |-3-|     |-3-|                    |-3-|                              
  E.  T T T E.  T T T E.  S    E.  S E.  T T T E  S S    E.  S E.  S E.  S  
--7---------7---7-5-7-5-----|--5---4-4---------4--2-0-|--------0---7-------|
--5---7-5-7-5---------5---4-|--4-----4---4-2-4-2------|--4---0-------7---0-|
----------------------------|-------------------------|--6-----------------|
----------------------4-----|-------------------------|--------------------|
------------4---------------|--2---------------0------|--------4-----6-----|
--4-------------------------|--------0----------------|--7-----------------|


  E.   S E.  S E.   S    E.  S E  E   S S S S    Q    E.  S E.  S  
--4---12-5---0-7---12-|--9--------------------|-------0-----------|
----------------------|--------------10-9-7---|--7--------------4-|
----------------------|------9-8------------9-|--6--------1-2-----|
--2------4-----6------|--7--------------------|-------4-----------|
----------------------|-----------------------|--0----2-----2-----|
----------------------|--------7--8---9-------|-------------------|


      |-3-|                              |-3-|                       
  E.  T T T Q    Q       E  E  E  E  E.  T T T    E  E  E  E  E  E   
--0---------0---------|--4---------------7-6-7-|--6--------3--9--0--|
----------------------|-----0--3--2------------|--------5-----7-----|
------2-1-2-1---------|------------------------|--6--7--------------|
-----------------2----|--3-----------3---------|--4-----------------|
----------------------|------------------------|--------------------|
--0-------------------|------------------------|--------------6-----|


                            |-3-|                                   
   E  E  E  E  E  E     E.  T T T E  E  E  E     E  E  E  E  E  E   
--10--------------2--|------------------------|-----0-----2--0-----|
------7--8--0--------|------5-3-5-3-----------|--------0--------3--|
---7-----------3-----|------------------------|--------------------|
---------------------|------------------0-----|--------------------|
---------------------|--2------------4-----0--|--------------------|
---7-----0-----2-----|------------------------|--4-----------0-----|


  E  S. T E  E  E  E     E  E  E  E  S S S S    E  E  E  E  S S S S  
-------------------5--|-----2----------4-2-4-|-----5----------7-5-7-|
-----2--3-5--2--------|-----------0----------|----------------------|
----------------2-----|--------2-------------|--------6--7----------|
----------------------|--0-----------2-------|--4-----------6-------|
--0-------------4-----|----------------------|----------------------|
----------------------|----------------------|----------------------|


                                 |--3--|       |--3--|         
  E  E  E  E  S  S S  S     E.   T  T  T  E.   T  T  T  E.  S  
-----9----------10-9-10-|--12------------12---12-10-12-10-----|
-----------7------------|--12---12-10-12-10------------10---9-|
--------9---------------|-------------------------------------|
--7-----------9---------|--11---------------------------9-----|
------------------------|-----------------9-------------------|
------------------------|-------------------------------------|


             |-3-|                                                   
   E.  S E.  T T T E  S S    E.  S E.  S E.  S    E.  S E.  S E.  S  
--10---9-9---------9--7-5-|--4---------0-------|------5-------0---5-|
---9-----9---9-7-9-7------|--7-----------0-----|--2-----3-----------|
--------------------------|--------2-----------|------------2-------|
-------------------0------|------6-----------2-|--------------------|
---7-----0----------------|--------------------|--0-----2-----4-----|
--------------------------|--0-----2-----4-----|--------------------|


                                                  |-3-|            
  E.  S E  E   S S S S    Q    E.  S E.  S    E.  T T T Q    Q     
--2---5-4-----10-9-7-5-|--7----5---------4-|--5---------5---------|
-----------------------|--7----0-----------|----------------------|
-----------------------|-----------6-7-----|------7-6-7-6---------|
--0-----2--3-----------|--0----------------|-----------------7----|
---------------9-------|-------------7-----|--0-------------------|
-----------------------|-------0-----------|----------------------|


                  |-3-|                                             
  E  E  E  E  E.  T T T    E  E  E  E  E  E      E  E  E  E  E  E   
--4---------------7-6-7-|--6--------3--9--0--|--10--------------2--|
--------3--2------------|--------5-----7-----|------7--8--0--------|
-----4------------------|--6--7--------------|---7-----------3-----|
--3-----------3---------|--4-----------------|---------------------|
------------------------|--------------------|---------------------|
------------------------|--------------6-----|---7-----0-----2-----|


      |-3-|                                                          
  E.  T T T E  E  E  E     E  E  E  E  E  E     E  S. T E  E  E  E   
------0---0-------------|-----0-----2--0-----|----------0--------5--|
--------3---3-----------|--------0--------3--|-----2--3----2--------|
------------------------|--------------------|----------------2-----|
------------------0-----|--------------------|----------------------|
--2------------4-----0--|--------------------|--0-------------4-----|
------------------------|--4-----------0-----|----------------------|


  E  E  E  E  S S S S    E  E  E  E  S S S S    E  E  E  E  S  S S  S  
-----2----------4-2-4-|-----5----------7-5-7-|-----9----------10-9-10-|
-----------0----------|----------------------|-----------7------------|
--------2-------------|--------6--7----------|--------9---------------|
--0-----------2-------|--4-----------6-------|--7-----------9---------|
----------------------|----------------------|------------------------|
----------------------|----------------------|------------------------|


        |--3--|       |--3--|                      |-3-|         
   E.   T  T  T  E.   T  T  T  E.  S     E.  S E.  T T T E  S S  
--12------------12---12-10-12-10-----|--10---9-9---------9--7-5-|
--12---12-10-12-10------------10---9-|---9-----9---9-7-9-7------|
-------------------------------------|--------------------------|
--11---------------------------9-----|-------------------0------|
----------------9--------------------|---7-----0----------------|
-------------------------------------|--------------------------|


  E.  S E.  S E.  S    E.  S E.  S E.  S    E.  S E  E   S S S S  
--4---------0-------|------5-------0---5-|--2---5-4-----10-9-7-5-|
--7-----------0-----|--2-----3-----------|-----------------------|
--------2-----------|------------2-------|-----------------------|
------6-----------2-|--------------------|--0-----2--3-----------|
--------------------|--0-----2-----4-----|---------------9-------|
--0-----2-----4-----|--------------------|-----------------------|


                          |-3-|             
  Q    E.  S E.  S    E.  T T T Q    Q      
--7----5---------4-|--5---------5---------||
--7----0-----------|----------------------||
-----------6-7-----|------7-6-7-6---------||
--0----------------|-----------------7----||
-------------7-----|--0-------------------||
-------0-----------|----------------------||



Duration Legend
---------------
Q - quarter
E - 8th
S - 16th
T - 32nd
. - note dotted
|-n-|  - n-tuplets





Comments


Popular Manuel Maria Ponce tabs & chords
Ballet Allegretto Tabs
Estrellita Tabs
Prelude In E Tabs
Prelude No 1 In Fm Tabs
Prelude No 3 In F Tabs
Prelude No 4 In B Tabs
Scherzino Mexicano Tabs
Tres Canciones Populares Mexicanas - 1 Tabs
Tres Canciones Populares Mexicanas - 2 Tabs
Variacions Sobre Un Tema De Antonio Cabezon Tabs


Song lyrics



↑ Back to top | Tablatures and chords are parodies/interpretations of the original songs. You may use it for private study, scholarship, research or language learning purposes only
© 2014 AZChords.com Contact us | Privacy policy | DMCA | Add/correct tabs | Request tabs | Top 50 tabs