» » »

Manu Chao, Rainin In Paradize Tabs (ver.1)

Artists:  A B C D E F G H I J K L M N O P Q R S T U V W X Y Z # 

Rainin In Paradize Tabs (ver.1)

Manu Chao Tabs
 Rating:
4.5/5 (8 votes)
Rainin In Paradize lessons Tabs too difficult? Try these video lessons and learn fast
                -------------------------------------------------------------------------------
                             Rainin in Paradize – Manu Chao
-------------------------------------------------------------------------------

Tuning: standard

“#1“  is first guitar
“#2“  is second guitar

(manu chao has practiced and plays two guitars simultaneously on his new album)


INTRO-first part- 

"Welcome to paradise 
"Today it's raining"  

play 2 times

#1|clean--------------------------------------------------------------------|
 B|-----8---8---8-------11---11---11-------6---6---6------8---8---8---------|
 G|--7---7~~-7~~-7---10---10---10~~-10---5~~5---5~~~5--7---7---7---7--------|
 D|-------------------------------------------------------------------------|
 A|-------------------------------------------------------------------------|
 E|-------------------------------------------------------------------------|
  |
#2|crunch/little distortion-------------------------------------------------|
 B|-------------------------------------------------------------------------|
 G|-------------------------------------------------------------------------|
 D|-------------------------------------------------------------------------|
 A|---5-5-5-5-5-5-5-5--8-8-8-8-8-8-8-8--3-3-3-3-3-3-3-3--5-5-5-5-5-5-5-5----|
 E|---3-3-3-3-3-3-3-3--6-6-6-6-6-6-6-6--1-1-1-1-1-1-1-1--3-3-3-3-3-3-3-3----|



Intro – Second heavy part
Today it's raining 

play 2 times
#1|-------------------------------------------------------------------------|
 B|-------------------------------------------------------------------------|
 G|-HEAVY DISTORTION--------------------------------------------------------|
 D|-------------------------------------------------------------------------|
 A|---5-5-5-5-5-5-5-5--8-8-8-8-8-8-8-8--3-3-3-3-3-3-3-3--5-5-5-5-5-5-5-5----|
 E|---3-3-3-3-3-3-3-3--6-6-6-6-6-6-6-6--1-1-1-1-1-1-1-1--3-3-3-3-3-3-3-3----|
  |
#2|crunch/little distortion-------------------------------------------------|
 B|-------------------------------------------------------------------------|
 G|-----12----12----------15--15-----15-----10--10----10----12-----12-------|
 D|--12-12-12-12-12----15-15--15-15--15--10-10--10-10-10----12--12-12-12----|
 A|--10-10-10-10-10----13-13--13-13--13---8--8---8--8--8----10--10-10-10----|
 E|-------------------------------------------------------------------------|


VERSE 
play 2 times

#1|-clean-------------------------------------------------------------------|
 B|---15---15---15---15-----15---15-----13---13--13----15---15--15----------|
 G|-----15----15--15---15-----15---15-----14---14--14----15---15--15--------|
 D|-------------------------------------------------------------------------|
 A|-------------------------------------------------------------------------|
 E|-------------------------------------------------------------------------|
  |
#2|crunch/little distortion-------------------------------------------------|
 B|-------------------------------------------------------------------------|
 G|-----12----12----------15--15-----15-----10--10----10----12-----12-------|
 D|--12-12-12-12-12----15-15--15-15--15--10-10--10-10-10----12--12-12-12----|
 A|--10-10-10-10-10----13-13--13-13--13---8--8---8--8--8----10--10-10-10----|


CHORUS

 #1 Distortion
 E|----------15//-18//---------15//-18//--------15//-18//---------15//-18//-|
 B|-15//-18//---------15//-18//---------15//-18//--------15//-18//----------|
 G|-------------------------------------------------------------------------|
 D|-------------------------------------------------------------------------|
 A|-------------------------------------------------------------------------|
 E|-------------------------------------------------------------------------|
  |
#2|crunch/little distortion-------------------------------------------------|
 B|-------------------------------------------------------------------------|
 G|-----12----12------------15--15-----15-----10--10----10----12-----12----|
 D|--12-12-12-12-12------15-15--15-15--15--10-10--10-10-10----12--12-12-12--|
 A|--10-10-10-10-10------13-13--13-13--13---8--8---8--8--8----10--10-10-10-|       
 E|-------------------------------------------------------------------------|

VERSE

CHORUS

CHORUS part 2 (1:52min)


 #1 Distortion
 E|----------15//-18//---------15//-18//--------15//-18//---------15//-18//-|
 B|-15//-18//---------15//-18//---------15//-18//--------15//-18//----------|
 G|-------------------------------------------------------------------------|
 D|-------------------------------------------------------------------------|
 A|-------------------------------------------------------------------------|
 E|-------------------------------------------------------------------------|
  |
#2|-------------------------------------------------------------------------|
 B|-------------------------------------------------------------------------|
 G|-HEAVY DISTORTION--------------------------------------------------------|
 D|-------------------------------------------------------------------------|
 A|---5-5-5-5-5-5-5-5--8-8-8-8-8-8-8-8--3-3-3-3-3-3-3-3--5-5-5-5-5-5-5-5----|
 E|---3-3-3-3-3-3-3-3--6-6-6-6-6-6-6-6--1-1-1-1-1-1-1-1--3-3-3-3-3-3-3-3----|

VERSE

CHORUS

solo....
e|--15---13---------13-------------------------------------------------------|
B|---------15p13-15---13-15-------13------------------------15~~~-18~~~------|
G|--------------------------15-12----15-12----15---17~~~-15-----15-----------|
D|-----------------------------------------15----15--------------------------|
A|---------------------------------------------------------------------------|
E|---------------------------------------------------------------------------|

e|----------------15//-18//-----------15//-18//------------------------------|
B|-15p13h15//-18//----------15//-18//----------------------------------------|
G|---------------------------------------------------------------------------|
D|---------------------------------------------------------------------------|
A|---------------------------------------------------------------------------|
E|---------------------------------------------------------------------------|



OUTRO- 
It´s up to you to mix all parts as described above and create a completely unique outro. 
And to rate this shiny happy tab.


NOT TO FORGET- WE PROUDLY PRESENT YOU
THE LYRICS
still hard to find on the internet.

In Zaire, Was no good place to be
Free world go crazy, it’s an atrocity
In Congo, Still no good place to be
They killed Mibali, it’s a calamity

Go Maasai go Maasai be mellow, Go Maasai
 go Maasai be sharp (2x)

In Monrovia, this no good place to be
Weapon go crazy, it’s an atrocity
In Palestina, too much hypocricy
This world go crazy, it's no fatality

CHORUS

Chorus part 2
Today it’s raining (4x), in paradise
Today it’s raining (4x)

In Baghdad, it's no democracy
That’s just because, it’s a US Country
In Fallujah, too much calamity
This world go crazy, it's no fatality

Go Maasai go Maasai be mellow, Go Maasai 
go Maasai be sharp (2x)

OUTRO
Today it’s raining (4x)

In Jerusalem, in Monrovia, Guinea-Bissau,
 today it's raining (3x)

Welcome to paradise, Come to the fairy lies
Welcome to paradise
Today it's raining (4x) fade out


| /  slide up
| \  slide down
| h  hammer-on
| p  pull-off
| ~  vibrato
| +  harmonic
| x  Mute note
===============================================================================
            
Submit corrections

comments powered by Disqus
↑ Back to top | Manu Chao Tabs for Rainin In Paradize. Lyrics for acoustic guitar and electric guitar. Tablatures and chords are parodies/interpretations of the original songs. You may use it for private study, scholarship, research or language learning purposes only