>
 >
Merry Blues

Merry Blues Guitar Tabs

Manu Chao - Merry Blues chords, tabs, tablatures, lyrics

Guitar lessons | Add/correct | Request | Top 50 tabs Artists:  A B C D E F G H I J K L M N O P Q R S T U V W X Y Z 0-9

Merry Blues Guitar Tabs – Manu Chao

CD, Sheet music, Poster

Do you like Merry Blues? Share with your friends now
Tabs
Manu Chao - Merry Blues
...próxima estación... ESPERANZA
[from the official TABbook]

Bb xx8766
G# xx6544
Gm xx5333
F  xx3211

All non-marked notes are quarter notes.
Play with ska picking (alternate picking; mute with fretting hand by downstroke
and let the strings sounding by upstroke)!  

Gtr I (E A D G B E)
Gtr II (E A D G B E) 

    Q=164
4/4 Bb                        G#      Gm
    Gtr II
    |   |   |   |     |   |   |  |    |   |   |   |
    x   /   x   /     x   /   x  /    x   /   x   /
    Gtr I
    E E E E E E E E   E E E E Q  Q    E Q   E E E E E
||--6-6-----6-----6-|-----6---------|-6--------------|
||o-----------------|---------9--9--|---8-----8-----8|
||--------7---7-7---|---7---7-------|-------7---7-7--|
||------------------|---------------|----------------|
||o-----------------|---------------|----------------|
||------------------|---------------|----------------|

                $
          F         Bb                  G#
  |   |   |  |
  x   /   x  /     
  E E E E Q  Q      
|----------------||-x--6--x--6--|-x--6--x--4-|
|-----6---6--6--o||-x--6--x--6--|-x--6--x--4-|
|---7---7--------||-x--7--x--7--|-x--7--x--5-|
|----------------||-x--8--x--8--|-x--8--x--6-|
|---------------o||-x-----x-----|-x-----x----|
|----------------||-x-----x-----|-x-----x----|

  Gm                  F       Bb                  G#
|-x--3--x--3--|-x--3--x--1--|-x--6--x--6--|-x--6--x--4-|
|-x--3--x--3--|-x--3--x--1--|-x--6--x--6--|-x--6--x--4-|
|-x--3--x--3--|-x--3--x--2--|-x--7--x--7--|-x--7--x--5-|
|-x--5--x--5--|-x--5--x--3--|-x--8--x--8--|-x--8--x--6-|
|-x-----x-----|-x-----x-----|-x-----x-----|-x-----x----|
|-x-----x-----|-x-----x-----|-x-----x-----|-x-----x----|

  Gm                  F       Bb                  G#
|-x--3--x--3--|-x--3--x--1--|-x--6--x--6--|-x--6--x--4-|
|-x--3--x--3--|-x--3--x--1--|-x--6--x--6--|-x--6--x--4-|
|-x--3--x--3--|-x--3--x--2--|-x--7--x--7--|-x--7--x--5-|
|-x--5--x--5--|-x--5--x--3--|-x--8--x--8--|-x--8--x--6-|
|-x-----x-----|-x-----x-----|-x-----x-----|-x-----x----|
|-x-----x-----|-x-----x-----|-x-----x-----|-x-----x----|

  Gm                  F       Bb                  G#
|-x--3--x--3--|-x--3--x--1--|-x--6--x--6--|-x--6--x--4-|
|-x--3--x--3--|-x--3--x--1--|-x--6--x--6--|-x--6--x--4-|
|-x--3--x--3--|-x--3--x--2--|-x--7--x--7--|-x--7--x--5-|
|-x--5--x--5--|-x--5--x--3--|-x--8--x--8--|-x--8--x--6-|
|-x-----x-----|-x-----x-----|-x-----x-----|-x-----x----|
|-x-----x-----|-x-----x-----|-x-----x-----|-x-----x----|

  Gm                  F       Bb                  G#
|-x--3--x--3--|-x--3--x--1--|-x--6--x--6--|-x--6--x--4-|
|-x--3--x--3--|-x--3--x--1--|-x--6--x--6--|-x--6--x--4-|
|-x--3--x--3--|-x--3--x--2--|-x--7--x--7--|-x--7--x--5-|
|-x--5--x--5--|-x--5--x--3--|-x--8--x--8--|-x--8--x--6-|
|-x-----x-----|-x-----x-----|-x-----x-----|-x-----x----|
|-x-----x-----|-x-----x-----|-x-----x-----|-x-----x----|

  Gm                  F       Bb                  G#
|-x--3--x--3--|-x--3--x--1--|-x--6--x--6--|-x--6--x--4-|
|-x--3--x--3--|-x--3--x--1--|-x--6--x--6--|-x--6--x--4-|
|-x--3--x--3--|-x--3--x--2--|-x--7--x--7--|-x--7--x--5-|
|-x--5--x--5--|-x--5--x--3--|-x--8--x--8--|-x--8--x--6-|
|-x-----x-----|-x-----x-----|-x-----x-----|-x-----x----|
|-x-----x-----|-x-----x-----|-x-----x-----|-x-----x----|

                          $
  Gm                  F
|-x--3--x--3--|-x--3--x-x-1-|
|-x--3--x--3--|-x--3--x-x-1-|
|-x--3--x--3--|-x--3--x-x-2-|
|-x--5--x--5--|-x--5--x-x-3-|
|-x-----x-----|-x-----x-x---|
|-x-----x-----|-x-----x-x---|

    Bb                        G#      Gm                        F
    |   |   |   |     |   |   |  |    |   |   |   |     |   |   |  |
    x   /   x   /     x   /   x  /    x   /   x   /     x   /   x  /

    E E E E E E E E   E E E E Q  Q    E Q   E E E E E   E E E E Q  Q
||--6-6-----6-----6-|-----6---------|-6---------------|----------------||
||o-----------------|---------9--9--|---8-----8-----8-|-----6---6--6--o||
||--------7---7-7---|---7---7-------|-------7---7-7---|---7---7--------||
||------------------|---------------|-----------------|----------------||
||o-----------------|---------------|-----------------|---------------o||
||------------------|---------------|-----------------|----------------||

Tablature Legend
----------------
 h   - hammer-on
 p   - pull-off
 b   - bend
 pb  - pre-bend
 r   - bend release (if no number after the r, then release immediately)
 /\  - slide into or out of (from/to "nowhere")
 s   - legato slide
 S   - shift slide
  - natural harmonic
[n]  - artificial harmonic
n(n) - tapped harmonic
 ~   - vibrato
 tr  - trill
 T   - tap
 TP  - trem. picking
 PM  - palm muting
\n/  - tremolo bar dip; n = amount to dip
 \n  - tremolo bar down
 n/  - tremolo bar up
/n\  - tremolo bar inverted dip
 =   - hold bend; also acts as connecting device for hammers/pulls
 <>  - volume swell (louder/softer)
 x   - on rhythm slash represents muted slash
 o   - on rhythm slash represents single note slash

Misc Legend
-----------
 |  - bar
||  - double bar
||o - repeat start
o|| - repeat end
*|  - double bar (ending)
 :  - bar (freetime)
 $  - Segno
 &  - Coda





Comments


Popular Manu Chao tabs & chords
Lagrimas De Oro Bass Tabs
100.000 Remords Chords
Crve La Vie Chords
Je Ne T'aime Plus Chords
La Despedida Chords
La Vie A Deux Chords
Mama Call Chords
Por El Suelo 1 Chords
Minha Galera Tabs
Desaparecido Ukulele


Song lyrics



↑ Back to top | Tablatures and chords are parodies/interpretations of the original songs. You may use it for private study, scholarship, research or language learning purposes only
© 2014 AZChords.com Contact us | Privacy policy | DMCA | Add/correct tabs | Request tabs | Top 50 tabs