» » »

Clandestino Bass tabs (ver.1)

Artists:  A B C D E F G H I J K L M N O P Q R S T U V W X Y Z # 

Clandestino Bass tabs (ver.1)

Manu Chao
Rating:
0/5 (0 votes)

Tabs too difficult? Try these video lessons and learn fast.
                Manu Chao - Clandestino - Bass Tab


comentarios y sugerencias,

'CLANDESTINO'

(0:10)                     *Verse 1(0:17)

|--------------------------|-------------------------------|
|---------4---------4------|-----4----------4---4---6---6--|
|---4---4-----4---4----444-|---4---4---4--2---2---4---4----|
|-2---2-----2---2----2-----|-2-------2---------------------|

|------------------------------------------------------------------------|
|---------4----------4---4---6-----------------4----------4---4---6---6--|
|---4---4---4---4--2---2---4---4-2-0-----4---4---4---4--2---2---4---4----|
|-2---2-------2----------------------4-2---2-------2---------------------|

|------------------------------------------------------------------------|
|-----4-----------4---4---6---6-----------------4----------4---4---6---6-|
|---4---4----4--2---2---4---4---4-2-0-----4---4---4---4--2---2---4---4---|
|-2--------2--------------------------4-2---2-------2--------------------|

|----------------------------------|
|---------4----------4---4---6---6-|
|---4---4---4---4--2---2---4---4---|
|-2---2-------2--------------------|

(1:23) *Chorus                         (1:34)                *Verse 2
|---------------------------------------|-4----------4--------|----|
|--------6--------6--------6--------6---|---4----------4------|----|
|---4--4-----4--4-----4--4-----4--4-----|---------------------|--4-|
|-2--------2--------2--------2--------2-|-----2-2-2-------2-2-|2---|

|------------------------------------------------------------|
|------------4---44---6---6-----4--------------4---4---6---6-|
|---4---4--2---2----4---4-----4-----4---4----2---2---4---4---|
|-2---2---------------------2-----2---2----2-----------------|

(2:01)*Chorus
|---------------------------------------|
|--------6--------6--------6--------6---|
|---4--4-----4--4-----4--4-----4--4-----|
|-2--------2--------2--------2--------2-|

(2:13)
|-4----------4-----------4-----------4----------4---------|
|---4----------4-----------4-----------4----------4-------|
|---------------------------------------------------------|
|-----2-2-2-------2-2-2-------2-2-2------2-2-2------2-2-2-|
            
Tabs too difficult? Try these video lessons and learn fast.




comments powered by Disqus
↑ Back to top | Tablatures and chords are parodies/interpretations of the original songs. You may use it for private study, scholarship, research or language learning purposes only