» » »

Mansun, Wide Open Space Tabs (ver.1)

Artists:  A B C D E F G H I J K L M N O P Q R S T U V W X Y Z # 

Wide Open Space Tabs (ver.1)

Mansun Tabs
 Rating:
4.3/5 (6 votes)
Wide Open Space lessons Tabs too difficult? Try these video lessons and learn fast
1
                name=Chris Blackburn
band=Mansun
song=Wide Open Space
inst_type=Select
body=intro

|-0---|
|-6---|
|---7-| 
|-----| x 16
|-----|
|-----|

Verse

|-0---|       |---5-|      |-0---|       |-----|      |---5-|      
|-6---|       |-0---|      |-6---|       |-0---|      |-0---|
|---7-|       |-6---|      |---7-|       |-6---|      |-6---|
|-----| x 16  |-----| x 8  |-----| x 16  |---7-| x 4  |-----| x 4
|-----|       |-----|      |-----|       |-----|      |-----|
|-----|       |-----|      |-----|       |-----|      |-----|

chorus

|-0-0-0-1---------|      |---------------------------------|
|-0-0-0-1---------|      |-2-2-2-2---2-2-2-2-2-2-2---2-2-2-|
|-2-2-2-2---------|      |-2-2-2-2---2-2-2-4-4-4-2---2-2-2-|
|-3-3-3-3-3-3-3-3-| x 4  |-2-2-2-2-2-2-2-2-2-2-2-2-2-2-2-2-|
|-3-3-3-3-3-3-3-3-|      |-0-0-0-0-0-0-0-0-0-0-0-0-0-0-0-0-|
|-1-1-1-1-1-1-1-1-|      |---------------------------------|

solo

e|------------------------------------------------------------
B|-14/\-14--14-14-14-10-----------------15-14/\--14-14-12-10----
G|----------------------12--11-12-11-12----------------------12-

e|------------------|
B|---------------15-| and so on.... meanwhile, this joins in here:
G|-11-12-11-12/\----|

e|-----------------14---10------------------14---10-
B|---8---10---12--------------8---10---12-----------
G|-9---9----9----9----9-----9---9----9----9----9----

e|-----------------10---12------------------14---10-
B|---8---10---12--------------8---10---12-----------
G|-9---9----9----9----9-----9---9----9----9----9----

e|-----------------10-10-12-10-hold-|
B|---8---10---12--------------------|
G|-9---9----9----9------------------|

then when it goes back to the chorus, chad plays this in the background:

e|---------------12----------------12-------------------|
B|-10-12-12/\-10-----10-12-12/\-10-----10-12-12/\-10----|
G|---------------------------------------------------9--|

repeatedly, with variations on that theme, using all these notes:
e|------------12-15-|
B|---10-12-13-------|
G|-9----------------|
            
Submit corrections

comments powered by Disqus
↑ Back to top | Mansun Tabs for Wide Open Space. Lyrics for acoustic guitar and electric guitar. 1 Tablatures and chords are parodies/interpretations of the original songs. You may use it for private study, scholarship, research or language learning purposes only