» » »

Mansun, Taxloss Bass tabs (ver.1)

Artists:  A B C D E F G H I J K L M N O P Q R S T U V W X Y Z # 

Taxloss Bass tabs (ver.1)

Mansun Tabs
Rating:
0/5 (0 votes)
Taxloss lessons Tabs too difficult? Try these video lessons and learn fast
                Intro\Verse:

|--------------------------------------------|
|-----------------------2-4-444-2------------|
|-----2>4-----2>4-----------------4----------|
|--------------------------------------------|


Post-verse:

Ahhhhhh come back to me.....

|---------------------------------------------------------------------------------|
|---------------------------------------------------------------------------------|
|------2222-2222-2222-2222----------------------------2>4-444--------2>4-444------|   x  2
|----------------------------2222-2222-2222-2222----------------------------------|


Pre-chorus:

We think you are......

|-----------------------------------------------------------------------------------|
|--------------------------------------------------------------------2h4-444p2------|
|------0000-0000-0000-0000---2222-2222-2222-2222---2>4-444--2>4-444-------------4---|   x  2
|-----------------------------------------------------------------------------------|


Chorus\Break:

Sing on the line.....

|---------------------------------------------------|
|---------------------------------------------------|
|------0000-0000-0000-0000---2222-2222-2222-2222----|   x 3
|---------------------------------------------------|

|---------------------------------------------------|
|---------------------------------------------------|
|---------------------------------------------------|   x 1
|------2222-2222-2222-2222---2222-2222-2222-2222----|

|---------------------------------------------------|
|---------------------------------------------------|
|------0000-0000-0000-0000---0000-0000-0000-0000----|   x 1
|---------------------------------------------------|


Dance bit at end {4:21}:

|---------6----6----------|
|----------------4-6------|
|-----2-4-----------------|
|-------------------------|

Until {4:56}, then:

|----------------------------------------------------|
|-------------------------------2-4-444-2------------|
|-----2>4-4444----2>4-4444----------------4----------|  (Sometimes the twiddle at 
|----------------------------------------------------|  the end is a bit different)
            
Submit corrections

comments powered by Disqus
↑ Back to top | Mansun Bass for Taxloss. Lyrics for acoustic guitar and electric guitar. Tablatures and chords are parodies/interpretations of the original songs. You may use it for private study, scholarship, research or language learning purposes only