» » »

Stripper Vicar Bass tabs (ver.1)

Artists:  A B C D E F G H I J K L M N O P Q R S T U V W X Y Z # 

Stripper Vicar Bass tabs (ver.1)

Mansun
Rating:
0/5 (0 votes)

Hard to play? Try these video lessons and learn fast.
                Verse:

|------------------------------------|
|--11111111-11111111-----------------|
|--------------------33333333-333333-|
|------------------------------------|

|------------------------------------|
|--11111111-11111111-----------------|
|--------------------33333333-333333-|
|------------------------------------|

|------------------------------------|
|------------------------------------|
|------------------------------------|
|--55555555-55555555--1111111-111111-|

Pre-chorus:

Mavis' opinion....

|--------------------------------------|
|--------------------------------------|
|--3--3-2--2-0--0----------------------|
|-----------------3-3-44-33-8888888----|


|--------------------------------------|
|--------------------------------------|
|--3--3-2--2-0--0----------------------|
|-----------------3-3-44-33------------|

Chorus:

Should we lie...

|------------------------------------------|
|------------------------------------------|
|---------------------8888-666-888-8h9p8-6-|  x 2
|--8888-666-8888-666-----------------------|

|------------------|
|------------------|
|------------------|
|--33333333-44444--|

Solo:

Same as chorus

Outro:

|------------------------------------------|
|------------------------------------------|
|---------------------8888-666-888-8h9p8-6-|  x 4
|--8888-666-8888-666-----------------------|

|---------------------|
|---------------------|
|------------------3--|
|--33333333-44444-----|
            
Hard to play? Try these video lessons and learn fast. | Correct




comments powered by Disqus
↑ Back to top | Tablatures and chords are parodies/interpretations of the original songs. You may use it for private study, scholarship, research or language learning purposes only