» » »

Mansun, She Makes My Nose Bleed Bass tabs (ver.1)

Artists:  A B C D E F G H I J K L M N O P Q R S T U V W X Y Z # 

She Makes My Nose Bleed Bass tabs (ver.1)

Mansun Tabs
 Rating:
4/5 (4 votes)
She Makes My Nose Bleed lessons Tabs too difficult? Try these video lessons and learn fast
                Intro\Verse:

|------------------------------------|
|------------------------------------|
|--------------------3----5----------|
|---5---5---0-3-5--------------------|

Sometimes Stove adds this little twiddle to the end:

			    
|---------------------------|----------------|
|---------------------------|----------------|
|--------------------3----5-|--5--5h6p5-3----|
|---5---5---0-3-5-----------|----------------|


Pre-chorus:

My only number must be, must be....

|--------------------------------------|
|--------------------------------------|
|--------------------------------------|
|---0-0-0-0-0-0-0-0-0-0-0-0-0----------|


Chorus\Break:

Bring her on down....
					 
|----------------------------------------|----------------|
|----------------------------------------|----------------|
|--------5-5-5-----3--3--5-5-5-----------|--5--5h6p5-3----|      x 3 then:
|---5--5---------------------------------|----------------|

|-----------------------------------------|
|-----------------------------------------|
|--R-e-s-t------------3-3-3-3--5-5-5-5----|
|------------5-5-5-5----------------------|
            
Submit corrections

comments powered by Disqus
↑ Back to top | Mansun Bass for She Makes My Nose Bleed. Lyrics for acoustic guitar and electric guitar. Tablatures and chords are parodies/interpretations of the original songs. You may use it for private study, scholarship, research or language learning purposes only