» » »

Mansun, Legacy Bass tabs (ver.1)

Artists:  A B C D E F G H I J K L M N O P Q R S T U V W X Y Z # 

Legacy Bass tabs (ver.1)

Mansun Tabs
 Rating:
4/5 (4 votes)
Legacy lessons Tabs too difficult? Try these video lessons and learn fast
                Intro/Verse:

|--------------------------------------------------|
|--------------------------------------------------|
|--------------444-44-444--------------444-44-444--|
|--000-00-000--------------000-00-000--------------|

Pre-Chorus:

|--------------------------------------------------------------|
|--------------------------------------------------------------|
|----------------------33333333--11111111------------11111111--|
|--22222222--33333333----------------------44444444------------|

Chorus:

|----------------------------------------|
|----------------------------------------|
|---------------------44444444-44444444--|
|--00000000-00000000---------------------|

|----------------------------------------|
|----------------------------------------|
|----------------------------------------|
|--55555555-55555555-222222222-22222222--|

|----------------------------------------|
|----------------------------------------|
|---------------------44444444-44444444--|
|--00000000-00000000---------------------|

|----------------------------------------|
|----------------------------------------|
|--------------------333333333-55555555--|
|--55555555-55555555---------------------|

Outro:

|---------------------------|
|---------------------------|
|--------------444-44-444---|
|--000-00-000---------------|
            
Submit corrections

comments powered by Disqus
↑ Back to top | Mansun Bass for Legacy. Lyrics for acoustic guitar and electric guitar. Tablatures and chords are parodies/interpretations of the original songs. You may use it for private study, scholarship, research or language learning purposes only