» » »

Mansun, Inverse Midas Tabs (ver.1)

Artists:  A B C D E F G H I J K L M N O P Q R S T U V W X Y Z # 

Inverse Midas Tabs (ver.1)

Mansun Tabs
 Rating:
4/5 (4 votes)
Inverse Midas lessons Tabs too difficult? Try these video lessons and learn fast
                (arranged for 2 guitars, or a very co-ordinated person)

Chords:
Intro/Great Events bit: B  E  G  F#
Everybody Helps bit: B  D  G(2)  F#(2)

B:    x24442
E:    022100
G     355433
F#    244322
D     x57775
G(2)  x.10.12.12.12.10
F#(2) x.9.11.11.11.9

|--------------------------------------------------------------------|
|-0-2-0-4-0-5-0-7--0-2-0-4-0-5-0-7--0-2-0-4-0-5-0-7--0-2-0-4-0-5-0-8-|
|--------------------------------------------------------------------|
|--------------------------------------------------------------------|
|--(2)------------(2)------------------------------------------------|
|-------------------(0)------------(0-3)------------(3-2)------------|

|--------------------------------------------------------------------|
|-0-2-0-4-0-5-0-7--0-2-0-4-0-5-0-7--0-2-0-4-0-5-0-7--0-2-0-4-0-5-0-8-|
|--------------------------------------------------------------------|
|--------------------------------------------------------------------|
|--(2)------------(2)------------------------------------------------|
|-------------------(0)------------(0-3)------------(3-2)------------|

|-------------------------------------------------------------------|
|-0-2-0-4-0-2-0-4-0-2-0-3-0-2-0-3-0-2-0-3-0-2-0-3-0-2-0-4-0-2-0-1-0-|
|------------------------------------(0)-----------(0)--------------|
|------------------(0)-------------(0)---------------(4)------------|
|--(2)------------(2)-----------------------------------------------|
|-------------------------------------------------------------------|
   E___________very body h_e_l_p_s me ma________ke my own mistakes

|-------------------------------------------------------------------|
|-0-2-0-4-0-2-0-4-0-2-0-3-0-2-0-3-0-2-0-3-0-2-0-3-0-2-0-4-0-2-0-1-0-|
|------------------------------------(0)-----------(0)--------------|
|------------------(0)-------------(0)---------------(4)------------|
|--(2)------------(2)-----------------------------------------------|
|-------------------------------------------------------------------|
             If I'm left alo___ne I'd ma______ke them anyway

|--------------------------------------------------------------------|
|-0-2-0-4-0-5-0-7--0-2-0-4-0-5-0-7--0-2-0-4-0-5-0-7--0-2-0-4-0-5-0-8-|
|--------------------------------------------------------------------|
|--------------------------------------------------------------------|
|--(2)------------(2)------------------------------------------------|
|-------------------(0)------------(0-3)------------(3-2)------------|
    Grea________t even________ts, but can't predict what's happening in 


|--------------------------------------------------------------------|
|-0-2-0-4-0-5-0-7--0-2-0-4-0-5-0-7--0-2-0-4-0-5-0-7--0-2-0-4-0-5-0-8-|
|--------------------------------------------------------------------|
|--------------------------------------------------------------------|
|--(2)------------(2)------------------------------------------------|
|-------------------(0)------------(0-3)------------(3-2)------------|
   pre___________sent tens____e.   No ref__eren__ce in code to me

|-------------------------------------------------------------------|
|-0-2-0-4-0-2-0-4-0-2-0-3-0-2-0-3-0-2-0-3-0-2-0-3-0-2-0-4-0-2-0-1-0-|
|------------------------------------(0)-----------(0)--------------|
|------------------(0)-------------(0)---------------(4)------------|
|--(2)------------(2)-----------------------------------------------|
|-------------------------------------------------------------------|
   E___________very body h_e_l_p_s me ma________ke my own mistakes

|-------------------------------------------------------------------|
|-0-2-0-4-0-2-0-4-0-2-0-3-0-2-0-3-0-2-0-3-0-2-0-3-0-2-0-4-0-2-0-1-0-|
|------------------------------------(0)-----------(0)--------------|
|------------------(0)-------------(0)---------------(4)------------|
|--(2)------------(2)-----------------------------------------------|
|-------------------------------------------------------------------|
             If I'm left alo___ne I'd ma______ke them anyway

|-----------------------------------------------------------------|
|-3---3---2---2---3---3---2---2---3---3---2---3---0---0---0---0---|
|---2---2---2---2---2---2---2---2---2---2---2---2---2---2---2---2-|
|-(3)----------------------------(3)------------------------------|
|------------------------------------------------(4)--------------|
|----------------(3)----------------------------------------------|

|-9-7-4----------------4------------9-7-4-----------4---6h7p6-------|
|-------7-5h7-5h7--5h7--------------------7-5h7-5h7-----------5-5-5-|
|------------------------6--4-4-6p4-------------------6-------------|
|-------------------------------------------------------------------|
|-------------------------------------------------------------------|
|-------------------------------------------------------------------|


thx to who writes this score!
            
Submit corrections

comments powered by Disqus
↑ Back to top | Mansun Tabs for Inverse Midas. Lyrics for acoustic guitar and electric guitar. Tablatures and chords are parodies/interpretations of the original songs. You may use it for private study, scholarship, research or language learning purposes only