» » »

I Can Only Disappoint You Tabs (ver.1)

Artists:  A B C D E F G H I J K L M N O P Q R S T U V W X Y Z # 

I Can Only Disappoint You Tabs (ver.1)

Mansun
Rating:
0/5 (0 votes)

Hard to play? Try these video lessons and learn fast.
                

Guitar 1 [clean]:

E----------------------------------------------------------|
B---------8-------------------8-----10---------------------|
G---------------10-----------------------------------------|
D------10---10-----10-----10-----10----------10-----10-----|
A---8-------------------8----------------12------12----12--|
E----------------------------------------------------------|

E---------12-----10------------12-----13---------------------|
B-------------------10-----10------10------------------------|
G-----10----------------10-----------------------------------|
D--12--------12--------------------------------10-----10-----|
A------------------------------------------12------12----12--|
E------------------------------------------------------------|

Guitar 2 [distorted]:
                                    [xxxxxheavy-pmxxxxxxx]
E-------------     -x-x--8\----     ----------------------
B-------------     -x-x-10\----     ----------------------
G-------------     ------------     ----------------------
D-------------     ------------     ----------------------
A-------------     ------------     ---10-10-8----10-10-8-
E--5-8-5-8-5\-     ------------     -8----------8---------




Guitar 3 [wah]: Solo 1

E------------------------------------------------------------|
B------------------------------------------------------------|
G-----------------------------------------7------------------|
D----------------7-10-7-----------------7---7----------------|
A------------8-10------------------8-10----------------------|
E---8-10-8-10------------8-10-8-10---------------------------|

E------------------------------------------------------------|
B------------------------------------------------------------|
G-----------------------------------------9b10-10r9-7-7------|
D----------------7-10-7-----------------7----7----------7-9--|
A------------8-10------------------8-10----------------------|
E---8-10-8-10------------8-10-8-10---------------------------|


Guitar 2 [distorted]: Solo 1
E----------------------17----------------------------|
B-15-15-15-17-17/\-15------15-15-15-17-17/\-15-------|
G-----------------------------------------------14---|
D----------------------------------------------------|
A----------------------------------------------------|
E----------------------------------------------------|


E----------------------17----------------------------|
B-15-15-15-17-17/\-15------17/-\17-15----------------|
G--------------------------------------14--17--------|
D----------------------------------------------------|
A----------------------------------------------------|
E----------------------------------------------------|
            
Hard to play? Try these video lessons and learn fast. | Correct




comments powered by Disqus
↑ Back to top | Tablatures and chords are parodies/interpretations of the original songs. You may use it for private study, scholarship, research or language learning purposes only