» » »

Mansun, Golden Stone Tabs (ver.1)

Artists:  A B C D E F G H I J K L M N O P Q R S T U V W X Y Z # 

Golden Stone Tabs (ver.1)

Mansun Tabs
 Rating:
4/5 (4 votes)
Golden Stone lessons Tabs too difficult? Try these video lessons and learn fast
                name=Chris Blackburn
band=Mansun
Golden Stone (rhythm)


E7 - 022130
E6 - 022120
E#5 - 022110
D/F# - 20023x


Verse:
E
Nothing is here for me
Bm
Just the music on the inside
D
Meaning nothing to the outside
A E E7-E6-E#5
Looking blankly at me


Chorus: 
D
We're golden
E
A symmetry that brings us close
D D/F#
Can't you see we're golden?
E
It's only us that see it

D
We're golden
E*
Telepathy that bonds us close
D A
Can't you see we're golden?
E E7-E6-E#5
Or do I have to spell it?

Golden Stone (lead)
you have to listen to the song for timing I'm afraid...


|-------------------------12/----------|
|-------------------10----9 /----------|
|----------9---------------------7/s4--|
|--------------------------------------|
|--------------------------------------| then silence for a bit.
|--------------------------------------|
Nothing is here for me...


|---------10/\---------|----------12/-----(11)-----------|
|--------------7/\/\/\-|----10----9 /--------------------|
|----------------------|--9------------7/----------------|
|------0---------------|---------------------------------|
|----------------------|--------------------^------------|
|-12s0-----------------|-----------------gently wobbling-|
Looking blankly...

|-----------------------|
|-----------------------|
|-----------------------|
|------0----------------|
|--------4/\----scr*pe--|
|-12s0-------0-xxxxxxxx-|



CHORUS: wobble most of the notes about and don't be too tight...

|-------------------------------------------------------------|
|-------------------------------------------------------------|
|-------------------------------------------------------------|
|-0-----7-6-6/\--2--------------7-6/\--2----------------------|
|----2-------------2----0----------------2--5-5s\-------------|
|-------------------------0-2---------------------2-2-2-2-2-4-|

|----------------------------|
|----------------------------|
|----------------------------|
|----------------------------|
|-----7-5--5-----------------|
|-4----------2-2-2-2-2-2s4-4-|

basically, with
|----------------------|
|----------------------|
|10-10-10-9-9----------|
|-------------11-11-11-|
|----------------------|
|----------------------|
played towards the end in the background.



THEN REPEAT ALL.



The solo is something like
|---------------------------------------palm-------|
|---10-9-------9-10-9-10-9-10-9-10-9----muted------|
|-9------7/\-------------------------7--chuggery---|
|------------9-------------------------x-x---------|
|--------------------------------------x-x---------|
|--------------------------------------x-x---------|

|-------10/\------------------------------|
|------------7/\/\/\---9--------10-9------|
|----------------------9------9------9/\--|
|----------------------9------------------|
|---------------------------(-9-2-9-2...)-|
|-0---------------------------------------|

|--------------------------------|
|----10-9/\/\/\------------------|
|-7-------------7--------7/\/\/\-|
|--------------------------------|
|--------------------------------|
|------------------12s0----------|

THEN REPEAT CHORUS
            
Submit corrections

comments powered by Disqus
↑ Back to top | Mansun Tabs for Golden Stone. Lyrics for acoustic guitar and electric guitar. Tablatures and chords are parodies/interpretations of the original songs. You may use it for private study, scholarship, research or language learning purposes only