» » »

Tied Up Dried Up And Dead To The World Tabs (ver.1)

Artists:  A B C D E F G H I J K L M N O P Q R S T U V W X Y Z # 

Tied Up Dried Up And Dead To The World Tabs (ver.1)

Manson Marilyn
Rating:
0/5 (0 votes)

Hard to play? Try these video lessons and learn fast.
                (Complete)
*means strum numerous times
EADGBE

Intro 1
|-----------------------------------------
|-----------------------------------------
|-----------------------------------------
|-----------------------------------------
|---7--7--7--7--7-------------------------      Very quiet 
|---0--0--0--0--0------------------------- 

Intro 2
|-----------------------------------------
|-----------------------------------------
|-----------------------------------------
|-----------------------------------------
|---7--7--7--7--7--7--7--5\7-7-7----    Also Very quiet 
|---0--0--0--0--0--0--0--0-0-0-0---

Verse 1 

|--12-13-12--12-13-12-12-13-12-14-15-16
|-------------------------------------------------
|------------------------------------------------
|------------------------------------------------
|------------------------------------------------   High notes   
|------------------------------------------------


Verse 2 

|-------------------------------------------------
|-------------------------------------------------
|------9-9-9-7-9-12-12-12-12/-14-14-14----
|------9-9-9-7-9-12-12-12-12/-12-12-12----
|------7-7-7-5-7-10-10-10-10/-12-12-12----     Very distorted  
|-------------------------------------------------- 

|-------------------------------------------------
|-------------------------------------------------
|------9-9-9-7-9-12-12-12-12---------------
|------9-9-9-7-9-12-12-12-12---------------
|------7-7-7-5-7-10-10-10-10-----------------     Very distorted  
|--------------------------------------------------  

Chorus 

|-----------------------------------------------------------------
|--------------------------------------------------------------
|-----------------------------------------------------------------
|------14*--12*--9*--10*-------------------------------------
|------14*--12*--9*--10*--------------------------------------  
|------12*--10*--7*--8-*-------------------------------------  

Ending 
|------------------------------------------22---------------------------------------------
|------------------------------------------22--------------------------------------------
|----------------------------------------------------------9-8-7---------------------------
|-----2--2--2--2--2--2--2--2--2-----------------with--------in background-----------                                  2
|-----2--2--2--2--2--2--2--2--2-----------------------------------------------------------                                 2
|-----0--0--0--0--0--0--0--0--0-------------------------------------------------------------       Palm Mute all 0




Order:  

Intro1: X1 
Intro2: X7 
Verse1: X1 
Verse2: X4 or 5 not sure 
Chorus: X2 
Verse1: X2 
Bass only no guitar here
Chorus: X2 
Verse2 Clean: X2 
Verse2: x3or4 not sure 
Chorus: X4or5  
Ending: to finish
            
Hard to play? Try these video lessons and learn fast. | Correct




comments powered by Disqus
↑ Back to top | Tablatures and chords are parodies/interpretations of the original songs. You may use it for private study, scholarship, research or language learning purposes only