>
 >
Sweet Dreams 1

Sweet Dreams 1 Guitar Tabs

Manson Marilyn - Sweet Dreams 1 chords, tabs, tablatures, lyrics

Guitar lessons | Add/correct | Request | Top 50 tabs Artists:  A B C D E F G H I J K L M N O P Q R S T U V W X Y Z 0-9

Sweet Dreams 1 Guitar Tabs – Manson Marilyn

CD, Sheet music, Poster

Do you like Sweet Dreams 1? Share with your friends now
ChordsTabsTabs v2
I found all the other tabs for this song weren't very thorough. 
 This one has *gasp* THE GUITAR SOLO! *gasp again*
 One word pretty much sums up the song-EASY! Just crank up your amp 
 and turn on the distortion to the MAX! Sorry I didn't include a rythm 
 to go along with it or the bass tabs. Just listen to the song to figure it out. :)
 /=Slide Up 
 ^=Bend
 RIFF 1 (Play this until Marilyn is done the first verse)\tab 
 D-----------5-------6-------5------------------------------------
 A---3---3-------3-------3-----------------6/8-----------5/6------
 E---------------------------------4---4-----------3---3----------
 
 RIFF 2 (Played during chorus "Some of them want to use you.....")
 G--5------------------------------
 D--5-(REPEAT 7x)--6-6--5----------
 A--3--------------6-6--5----------
 E-----------------4-4--3----------
 
 Riff 3 Bridge
 G--------------------5------------------------------
 D--6--------------5--5-(REPEAT 9x)--6-------------5-
 A--6-(REPEAT 13x)-5--3--------------6-(REPEAT 7x)-5-
 E--4--------------3-----------------4-------------3-
 
 G---------------------------------
 D--6--------------5---------------
 A--6-(REPEAT 8X)--5--(REPEAT 8X)--
 E--4--------------3---------------

 Riff 4 (Played before solo)
 E-------------------------------------------
 B-----------3--3^-----------------------7^--
 G--5--3--5---------(PLAY 3x)---5--3--5------
 
 E-----------------------------------------------
 B-----------------------------------------------
 G-----------3--3^-----------------------3--3^---
 D--5--3--5---------(PLAY 2X)---5--3--5--------5-
 
 GUITAR SOLO
 E--6---8----11-------6--8--6------------------------
 B------------------------------7^-------------------
 G-----------------------------------5--3--5---------
 D---------------------------------------------3^----
 
 B------------------------------------------3----4---
 G---------5---------------------5-----5-------------
 D--3^--5---------------3---3^-----------------------
 A--------------3---5--------------------------------
 
 E----------------6---8---6----11----13----14^-------
 B--3---6-----6^---------------------------------13--
 
 RIFF 5
 B-----------3--3^------------6^-----------------
 G--5--3--5----------5--3--5--------5--3--5------ 
 E---8---6---8---10---10^----8---6----8-----14^--
 B-----------------------------------------------
 
 E---8---6---8---10---10^---8---6---8---10---13^-
 B-----------------------------------------------
 
 G--------5-------
 D--6--5--5-------
 A--6--5--3-------
 E--4--3---------- 
 
 ORDER
 AGAIN, LISTEN TO THE ALBUM FOR THE RYTHM 

 RIFF 1 10x
 AFTER YOU PLAY RIFF 1 6X, PLAY RIFF 2 4x 
 RIFF 3 BRIDGE 
 RIFF 1 6x (WITH EXTRA WAH DISTORTION)
 RIFF 1 8x
 RIFF 2 4x 
 RIFF 3
 PLAY RIFF 4 DURING RIFF 3
 PLAY RIFF 1 ALONG WITH GUITAR SOLO
 RIFF 1 4x
 PLAY RIFF 5 AND RIFF 3 AT THE SAME TIME
 
Sweet Dreams by Marilyn Manson
(cover of old eurythmics song)
---

I got the tabs for this off of the nevada site and they didn't sound
QUITE right, so this is what I got.

riff
e--------------------------------------------------------------------
B--------------------------------------------------------------------
G--------------------------------------------------------------------
D-----5---6---5------------------------------------------------------
A-3-3---3---3---3----6/8----4/5--------------------------------------
E-----------------44-----33------------------------------------------

bridge
e-------------------------------------------------------------------
B-------------------------------------------------------------------
G-5-5-5-5-5-5-5-----------------------------------------------------
D-5-5-5-5-5-5-5-6-6-5-----------------------------------------------
A-3-3-3-3-3-3-3-6-6-5-----------------------------------------------
E-3-3-3-3-3-3-3-4-4-3-----------------------------------------------

chorus
e--------------------------------------------------------------------
B--------------------------------------------------------------------
G----------------x5555555x------- 5----------------------------------
D-666666666666666x5555555x6666666656666666655555555------------------
A-666666666666666x3333333x6666666636666666655555555------------------
E-444444444444444x3333333x4444444434444444433333333------------------

I haven't figured out the solos yet, but I will eventually.

order of song: 

(cool voices :)

riff 6x (slight distortion)
(after 2x, voice comes in)

bridge 4x 
(some of them want to use you, some of them want get...etc)

chorus (with distortion)  

riff 6x (with wah)
riff 4x (slight distortion)  

bridge 4x  

chorus (with distortion) w/ solo1

riff 4x (without the slides)

riff 4x w/ solo2

no guitar 

bridge 6x w/ riff

chorus (with distortion) 2x w/ solo1

---

i think thats right.  shrug.





Comments


Popular Manson Marilyn tabs & chords
Antichrist Superstar Tabs
Down In The Park Tabs
I Put A Spell On You Tabs
Little Horn 1 Tabs
Mister Superstar 1 Tabs
Rock Is Dead Tabs
Sweet Tooth 1 Tabs
The Man That You Fear 1 Tabs
Tourniquet 1 Tabs
Various Songs Tabs


Song lyrics



↑ Back to top | Tablatures and chords are parodies/interpretations of the original songs. You may use it for private study, scholarship, research or language learning purposes only
© 2014 AZChords.com Contact us | Privacy policy | DMCA | Add/correct tabs | Request tabs | Top 50 tabs