» » »

Manson Marilyn, I Dont Like The Drugs Tabs (ver.2)

Artists:  A B C D E F G H I J K L M N O P Q R S T U V W X Y Z # 

I Dont Like The Drugs Tabs (ver.2)

Manson Marilyn Tabs
 Rating:
4/5 (4 votes)
I Dont Like The Drugs lessons Tabs too difficult? Try these video lessons and learn fast
                tunning: standard

intro:
|----------------------------------|
|----------------------------------|
|----------------------------------|
|---4-4-------4-4-------7-7---/----|
|---4-4-------4-4-------7-7---/----|
|---2-2-------2-2-------5-5---/----|

verse:                                                        fill
-------------------------------------------------------|--------------| |------------------------------------------------------|--------------| |------------------------------------------------------|--------------| |------------------------------------------------------|---7~----9~---| 
|---9--7-9~-xx----9--7-9~-xx----9--7-9~-xx----9--7-9~--|--------------|
|------------------------------------------------------|--------------|
bridge before chorus:
|-------------------------------------------------------------------------------------|
|-------------------------------------------------------------------------------------|
|-------------------------------------------------------------------------------------|
|6-6-6-6\-8-8-8-8-/6-6-6-6\-8-8-8-8-/9-9-9-9---6-6-6-6\-8-8-8-8-/-6-6-6-6\-8-8-8-8-/--|
|4-4-4-4\-6-6-6-6-/4-4-4-4\-6-6-6-6-/7-7-7-7---4-4-4-4\-6-6-6-6-/-4-4-4-4\-6-6-6-6-/--|
|-------------------------------------------------------------------------------------| 

-----------------------------------|
-----------------------------------|
-----------------------------------|
-9-9-9-9-/10-10-10-10/11~~\--------| 
-7-7-7-7-/8--8--8--8-/9-~~\--------| 
-----------------------------------|
chorus:                                                              fill
|--------------------------------------------------------------| |-------------|
|--------------------------------------------------------------| |-------------| |--------------------------------------------------------------| |-------------|
|--4---4---4---------7--9-------------4-x-4-x-4---------9--7---| |--4-4----7-7-|
|--4-x-4-x-4---------7--9-------------4-x-4-x-4---------9--7---| |--4-4----7-7-|
|--2-x-2-x-2p0h2p0---5--7-------------2-x-2-x-2p0h2p0---7--5---| |--2-2----5-5-|

breakdown (bass)
|----------------------------------|
|----------------------------------|
|----------------------------------|
|----------------------------------|
|----------------------------------|
|---8/6--6/-6/-6/---6/5--5/-5/-5/--|
            
Submit corrections

comments powered by Disqus
↑ Back to top | Manson Marilyn Tabs for I Dont Like The Drugs. Lyrics for acoustic guitar and electric guitar. Tablatures and chords are parodies/interpretations of the original songs. You may use it for private study, scholarship, research or language learning purposes only