» » »

1996 Tabs (ver.1)

Artists:  A B C D E F G H I J K L M N O P Q R S T U V W X Y Z # 

1996 Tabs (ver.1)

Manson Marilyn
Rating:
0/5 (0 votes)

Hard to play? Try these video lessons and learn fast.
                "1996" by Marilyn Manson
album- AntiChrist  Superstar

This is one of the cooler songs from AntiChrist.  I 
play it half a step down (low to high- Eb Db Gb Bb Eb)

 -Bass-
D|------------------------------------------|
G|------------------------------------------|
B|------------------------------------------|
E|--0-0--3\5-6-6-6-5-3---0-0-3\5-6-6-6-5-3--|

 Then the band joins in to play
E|----------------------------------------
B|----------------------------------------
G|----------------------------------------
D|-2-2-5\7-8-8-8-7-5--2-2-5\7-8-8-8-7-5---
A|-2-2-5\7-8-8-8-7-5--2-2-5\7-8-8-8-7-5---
E|-0-0-3\5-6-6-6-5-3--0-0-3\5-6-6-6-5-3---

 And now it's chorus time!
E|-----------------------------------------------
B|-----------------------------------------------
G|--------------9-12-7\9--------------9-12-7\9---
D|-2-5-7-8-7-5--9-12-7\9--2-5-7-8-7-5-9-12-7\9---
A|-2-5-7-8-7-5--7-10-5\7--2-5-7-8-7-5-7-10-5\7---
E|-0-3-5-6-5-3------------0-3-5-6-5-3------------

And that's all there is to it.
            
Hard to play? Try these video lessons and learn fast. | Correct




comments powered by Disqus
↑ Back to top | Tablatures and chords are parodies/interpretations of the original songs. You may use it for private study, scholarship, research or language learning purposes only