» » »

Manowar, Blood Of The King Bass tabs (ver.2)

Artists:  A B C D E F G H I J K L M N O P Q R S T U V W X Y Z # 

Blood Of The King Bass tabs (ver.2)

Manowar Tabs
 Rating:
4/5 (4 votes)
Blood Of  The King lessons Tabs too difficult? Try these video lessons and learn fast
                "(1)
-----------------------------

Normal Tuning: EADG

Intro

D-|--9--7--5--4--9--------------------------|  
A-|--7--5--3--2--7--7-7-7-7-7-7-7-7-7-7-7-7-|    X2

D-|--9--7--5--4-----------------------------|  
A-|--7--5--3--2--7--5--3--7-2-2-2-2-2-2-2-2-|    
E-|--------------5--3--1--5-----------------|

Bass Fill (Very Fast)

G-|----------4-5-7-5-4--------------4-5-7-9-|
D-|----4-5-7-----------7-5-4--4-5-7---------|
A-|--7-----------------------7--------------|

Verse
(you might wanna use a pick cause it's very fast) 

A-|-77777777777777777777777777777777777777--|

"1.Brothers the battle is raging..."
"2.Our armies in england..."
"3.Sound the death tone..."
A-|-777777777777777777--222222222222222222--| X2 Im not sure
                                                 about how many  
A-|-0h2-3-2--------|                             times notes are                 
E-|---------5-3----|                             played.. 

A-|-777777777777777777--222222222222222222--| X2

A-|-0h2-3-2-----2-------|                                              
E-|---------5-3---5-3-2-|

Chorus
"On a crusade..."

D-|---------------------5------7--9--|
A-|-777777777777777777--3--5---5--7--|
E-|------------------------3---------| 

D-|---------------------5------7--9-----5--7--|
A-|-777777777777777777--3--5---5--7--5--3--5--|
E-|------------------------3---------3--------| 

Solo
(Same as the verse part)

Outro

A-|-2-3-0-| Repeat as needed and as you can ;)

Please send me any corrections or comment.
"            
Submit corrections

comments powered by Disqus
↑ Back to top | Manowar Bass for Blood Of The King. Lyrics for acoustic guitar and electric guitar. Tablatures and chords are parodies/interpretations of the original songs. You may use it for private study, scholarship, research or language learning purposes only