>
 >
Sons Of Odin

Sons Of Odin Guitar Tabs

Manowar - Sons Of Odin chords, tabs, tablatures, lyrics

Guitar lessons | Add/correct | Request | Top 50 tabs Artists:  A B C D E F G H I J K L M N O P Q R S T U V W X Y Z 0-9

Sons Of Odin Guitar Tabs – Manowar

CD, Sheet music, Poster

Do you like Sons Of Odin? Share with your friends now
TabsTabs v2
Band:  MANOWAR

Copyright (c)  MAGIC CIRCLE MUSIC 2006
Version 1.0 - 2007-02-10



.  - palm mute           /  - slide up to
\  - slide down to       ~  - vibrato
h  - hammer on           b  - Bend
p  - pull off            Suffixes for bend
t  - tap                 f  - full bend    h - half bend
ph - pinched harmonic    q  - quarter bend t - tap bend
*  - see comment         ^  - Hold bend    r release bend
x  - Stuccatto           ~  - vibrato bend
,  - slight palm mute    () - ghost note, sustained note
"  - tremolo note        <> - Trill

Tuning D#G# C# F# A# d#

This is my first tab and I’m proud to tell it is the tab of one of Manowar’s newest 
I tuned my guitar 1/2 step down, because it sounds heavier and better! Have fun!

INTRO:
|-------------------------------------------------------------------|
|-------------------------------------------------------------------|
|-2---------2-5\--2---------2-5\------------------------------------|
|-2---------2-5\--2---------2-5\------------------------------------|
|-0-0-0-0-0-0-----0-0-0-0-0-0-----5-----------5---------------------|
|---------------------------------3-3-3-3-3-3-3-3-3-3-3-3-----------|
    . . . .         . . . .         . . . . .   . . . . .
|-------------------------------------------------------------------|
|-------------------------------------------------------------------|
|-------------5-5---------------------------------------------------|
|-5---------5-5-5---------------------------------------------------|
|-3-3-3-3-3-3-3-3---------------------------------------------------|
|-------------------------------------------------------------------|
    . . . .

RIFF 1: X2
|-------------------------------------------------------------------|
|-------------------------------------------------------------------|
|-------------------------------------------------------------------|
|-------------------------------------------------------------------|
|-7-------7---7\5/7-------7-9--10-------10-10-9-7-5-------5---------|
|-5-5-5-5-5-5-5\3/5-5-5-5-5-7---8-8-8-8--8--8-7-5-3-3-3-3-3-3-5-7---|
    . . .   .       . . .         . . .             . . .   . . .

RIFF 2: X4
|-------------------------------------------------------------------|
|-------------------------------------------------------------------|
|-------------------------------------------------------------------|
|-------------------------------------------------------------------|
|7-------7-------7-------7-------5-------5-------5------------------|
|5-5-5-5-5-5-5-5-5-5-5-5-5-5-5-5-3-3-3-3-3-3-3-3-3-3-3-3-3-3-3-3-3-3|
 . . . . . . . . . . . . . . . . . . . . . . . . . . . . . . . . . .
RIFF 1: X2
RIFF 2: X4
RIFF 1: X2
RIFF 3:
A.
|-------------------------------------------------------------------|
|-------------------------------------------------------------------|
|-------------------------------------------------------------------|
|-----------------5--------------------------------2-2-2-2----------|
|-7-------7-------3-3-3-3-5--------7-------7-------2-2-2-2----------|
|-5-5-5-5-5-5-5-5---------5-3-3-3--5-5-5-5-5-5-5-5-0-0-0-0----------|
    . . .   . . .   . . .   . . .    . . .   . . .
B.
|-------------------------------------------------------------------|
|-------------------------------------------------------------------|
|-------------------------------------------------------------------|
|-5-------4------------------------3--5--7--------------------------|
|-3-3-3-3-2-2-2-2-7-------5--------3--5--7--------------------------|
|-----------------5-5-5-5-3-3-3-3--1--3--5--------------------------|
    . . .   . . .   . . .   . . .

RIFF 4: X2
|-------------------------------------------------------------------|
|-------------------------------------------------------------------|
|-------------------5\--------------------5\------------------------|
|-------------------5\--------------------5\------------------------|
|-0-0-0-0-0-0-0-0-0-----0-0-0-0-0-0-0-0-0---------------------------|
|-------------------------------------------------------------------|
  . . . . . . . . .     . . . . . . . . .
|-------------------------------------------------------------------|
|-------------------------------------------------------------------|
|-------------------------------------------------------------------|
|-------------------------------------------------------------------|
|-3-3-3-3-3-3-3-3-3-3-3-3-3-3-3-3-3-3-3-3-3-3-3-3-------------------|
|-------------------------------------------------------------------|
  . . . . . . . . . . . . . . . . . . . . . . . .

SOLO RHYTM:
|-------------------------------------------------------------------|
|-------------------------------------------------------------------|
|-------------------------------------------------------------------|
|---------------------------------------------------------5-5-------| (X2)
|-7-------7-------7-------7-------5-------5-------5-------5-5-------|
|-5-5-5-5-5-5-5-5-5-5-5-5-5-5-5-5-3-3-3-3-3-3-3-3-3-3-3-3-3-3-------|
    . . .   . . .   . . .   . . .   . . .   . . .   . . .
|-------------------------------------------------------------------|
|-------------------------------------------------------------------|
|-------------------------------------------------------------------|
|-7-------7-------7-------7-------------------------------7-9-------|
|-5-5-5-5-5-5-5-5-5-5-5-5-5-5-5-5-7-------7-------7-------7-9-------|
|---------------------------------5-5-5-5-5-5-5-5-5-5-5-5-5-7-------|
    . . .   . . .   . . .   . . .   . . .   . . .   . . .
|-------------------------------------------------------------------|
|-------------------------------------------------------------------|
|-------------------------------------------------------------------|
|-5-------5-------5-------5-------------------------------5-7-------|
|-3-3-3-3-3-3-3-3-3-3-3-3-3-3-3-3-5-------5-------5-------5-7-------|
|---------------------------------3-3-3-3-3-3-3-3-3-3-3-3-3-5-------|
    . . .   . . .   . . .   . . .   . . .   . . .   . . .


|-------------------------------------------------------------------|
|-------------------------------------------------------------------|
|-------------------------------------------------------------------|
|-3-------3-------3-------3-------3--4--5---------------------------|
|-1-1-1-1-1-1-1-1-1-1-1-1-1-1-1-1-3--4--5---------------------------|
|---------------------------------1--2--3---------------------------|
    . . .   . . .   . . .   . . .

RIFF 4: X2
RIFF 1: X2
RIFF 3: X2
RIFF 3B

END





Comments


Popular Manowar tabs & chords
Fight Until We Die Bass Tabs
The Spirit Horse Of The Cherokee 1 Bass Tabs
Warriors Of The World United Bass Tabs
Courage 1 Tabs
Dark Avenger Tabs
Die For Metal Tabs
Flight Of The Bumble Bee Tabs
Return Of The Warlord Tabs
Sons Of Odin 1 Tabs
Warriors Of The World United 2 Tabs


Song lyrics



↑ Back to top | Tablatures and chords are parodies/interpretations of the original songs. You may use it for private study, scholarship, research or language learning purposes only
© 2014 AZChords.com Contact us | Privacy policy | DMCA | Add/correct tabs | Request tabs | Top 50 tabs