» » »

Manowar, Sign Of The Hammer Tabs (ver.1)

Artists:  A B C D E F G H I J K L M N O P Q R S T U V W X Y Z # 

Sign Of The Hammer Tabs (ver.1)

Manowar Tabs
Rating:
0/5 (0 votes)
Sign Of The Hammer lessons Tabs too difficult? Try these video lessons and learn fast
                Manowar: Sign of the Hammer(Sign of the Hammer)

Standard Tuning

  
|----------------------------------------------------------------------------|
|----------------------------------------------------------------------------|
|-7--------------------------------------------------------------------------|
|-6--------------------------------------------------------------------------|
|-5--------------------------------------------------------------------------|
|-0-0-0-0-0-0-0-0-0-0--------------------------------------------------------|

|----------------------------------------------------------------------------|
|2-2-2-2-3-3-3-3-4-4-4-4-5-5-5-5-6-6-6-6-7-7-7-7-8-8-8-8-9-9-9-9-10-10-10-10-|
|----------------------------------------------------------------------------|
|----------------------------------------------------------------------------|

|----------------------------------------------------------------------------|
|-11-11-11-11-12-12-12-12----------------------------------------------------|
|----------------------------------------------------------------------------|
|----------------------------------------------------------------------------|

Then play:
|----------------------------------------------------------------------------|
|-7-7-7-7-7-7-7-10-10-10-10-10-10-10-13-13-13-13-13-13-13-13-----------------|
|----------------------------------------------------------------------------|
|----------------------------------------------------------------------------|

|----------------------------------------------------------------------------|
|----------------------------------------------------------------------------|
|-5----11-------------------------------------------------------------------|
|-5--------------------------------------------------------------------------|
|-3--------------------------------------------------------------------------|
|----------------------------------------------------------------------------|

Riff 1 6x
|----------------------------------------------------------------------------|
|----------------------------------------------------------------------------|
|-2-----------------------------------5--------------------------------------|
|-2-----------------------------------5--------------------------------------|
|-0-0-0-0-0-0-0-0-0-0-0-0-0-0-0-0-0-0-3-3-3-3-3-3-3-3-3-3-3-3-3-3-3-3--------|
|----------------------------------------------------------------------------|


Chorus
|--------------------|-------------------------------------------------------|
|--------------------|-------------------------------------------------------|
|------------------2-|--------------------------------------2----------------|
|-3----5-----2-----2-|-3----5----7----7---5---3---5----2----2----3---5---7-2-|
|-3----5-----2-----0-|-3----5----7----7---5---3---5----2----0----3---5---7-2-|
|-1----3-----0-------|-1----3----5----5---3---1---3----0---------1---3---5-0-|

Play riff 1 5x

Play Chorus

Solo(Play riff 1 4x)
|-22(24)-br-------20(22)-br--------------|-----------------------------------|
|-----------22--------------17--15-17----|-P.H----------P.H----------P.H-----|
|-------------------------------------14-|-7(9)-br-5----7(9)-br-5----7(9)-br-|
|----------------------------------------|-----------7------------7----------|
|----------------------------------------|-----------------------------------|
|----------------------------------------|-----------------------------------|

|------------------P.H-------------------------------------------------------|
|-----P.H----------8(10)------------------------------6(8)-5-6-5-6-5-6-5----|
|-5---7(9)-br-5-------------4-5-4-----------------------------------------7--|
|---7-----------7-----------------7-5-3--------------------------------------|
|----------------------------------------7-5-3.....--------------------------|
|----------------------------------------------------------------------------|

|-----------------------------14-17-14----------------|----------------------|
|--------------------------------------17-14----------|-------------------12-|
|-7(9)-5h7p5h7p5h7p5h7p5h7p5-----------------16-14----|-------------12-14----|
|--------------------------------------------------16-|-------12-14----------|
|-----------------------------------------------------|-12-14----------------|
|-----------------------------------------------------|----------------------|

|---------20(22)-------20(22)-20(22)-20(22)----------------------------------|
|-15(17)-------------------------------------17------------------------------|
|-----------------17---------------------------------------------------------|
|----------------------------------------------------------------------------|
|----------------------------------------------------------------------------|
|----------------------------------------------------------------------------|

After the solo
|----------------------------------------------------------------------------|
|----------------------------------------------------------------------------|
|-2---2-------5--2-----2---2-------------------------------------------------|
|-2---2-------5--2-----2---2-------------------------------------------------|
|-0---0-------3--0-----0---0-------------------------------------------------|
|----------------------------------------------------------------------------|

Play riff 1 2x

Play Chorus few times

outro(sorry I couldn't hear the guitars so this is the bass-thingie)
|-------------------------7-7-7-10-10-10-13-13-13-16-16-16-19-19-19----------|
|-------------6-6-6-9-9-9----------------------------------------------------|
|-5-5-5-8-8-8----------------------------------------------------------------|
|----------------------------------------------------------------------------|


|----------------------------------------------------------------------------|
|----------------------------------------------------------------------------|
|-2-----------------------------------5-5-5-5-2------------------------------|
|-2-----------------------------------5-5-5-5-2------------------------------|
|-0-0-0-0-0-0-0-0-0-0-0-0-0-0-0-0-0-0-3-3-3-3-0000000------------------------|
|----------------------------------------------------------------------------|
            

comments powered by Disqus
↑ Back to top | Manowar Tabs for Sign Of The Hammer. Lyrics for acoustic guitar and electric guitar. Tablatures and chords are parodies/interpretations of the original songs. You may use it for private study, scholarship, research or language learning purposes only